Oops, an error
Loading. Please wait.

And I Love Her Tab

version 2
version 2

Whole song

1,042 views 3 this week
no commentswrite comment
1 2 3 4 5
accurate
x 1
add to favorites
launch autoscroll
font size
0
reset
how to read this tab
guitar tuner
Tab Pro tools
  • play this tab
  • loop segment
  • change instrument
  • show fretboard
  • metronome
Autoscroll
slow
fast
+/-
esc
set tempo
stop
Contributor
Difficulty
intermediate
   And I Love Her
  (Santo & Johnny)
___________________________________________________________________________________________
tabbed by masho90


   F#m             C#m           C#m             F#m
e|---------------|-------------|---------------|-------------|
B|---------------|-------------|---------------|-------------|
G|---------------|-------------|---------------|-------------| (x2)
D|---------------|-------------|---------------|-------------|
A|---------6/7-6-|-4-----------|---------6/7-6-|-4-----------|
E|-------4-------|-------------|-------4-------|-------------|
   ' ' '     '     '  '  '  '    ' ' '     '     '  '  '  '
   (F#m)     C#m                 F#m                 C#m                 F#m
e|---------|-------------------|-9/11\9---9-12-----|-------------------|-9\11---9--------|
B|---------|-----------9-10----|-------------------|-----------9-10----|-----------------|
G|---------|----9/11-----------|-------------------|----9/11-----------|-----------------|
D|---------|-------------------|-------------------|-------------------|-----------------|
A|---------|-------------------|-------------------|-------------------|-----------------|
E|---------|-------------------|-------------------|-------------------|-----------------|
   ' ' ' '   '    '    '    '       '   '   '   '    '    '    '    '       '   '  '  '
   C#m                 F#m                 C#m/G             B                 C#m
e|-------------------|-9/11\9---9-12-----|---11/12--9~~\5--|-5-4-2-----------|---4-------|
B|-----------9-10----|-------------------|-----------------|-----------------|-----------|
G|----9/11-----------|-------------------|-----------------|-----------6\4-4-|-6---------|
D|-------------------|-------------------|-----------------|-----------------|-----------|
A|-------------------|-------------------|-----------------|-----------------|-----------|
E|-------------------|-------------------|-----------------|-----------------|-----------|
   '    '    '    '       '   '   '   '    '    '   '   '    '   '   '   '     '   ' ' '
   (C#m)     C#m                 F#m                 C#m                 F#m
e|---------|-------------------|-9/11\9---9-12-----|-------------------|-9/11\9-9--------|
B|---------|-----------9-10----|-------------------|-----------9-10----|-----------------|
G|---------|----9/11-----------|-------------------|----9/11-----------|-----------------|
D|---------|-------------------|-------------------|-------------------|-----------------|
A|---------|-------------------|-------------------|-------------------|-----------------|
E|---------|-------------------|-------------------|-------------------|-----------------|
   ' ' ' '   '    '    '    '       '   '   '   '    '    '    '    '       '   '  '  '
   C#m                 F#m                 C#m/G             B                   C#m
e|-------------------|-9/11\9---9-12-----|---11/12--9~~\5--|-4h5p4-2-----------|---4-------|
B|-----------9-10----|-------------------|-----------------|-------------------|-----------|
G|----9/11-----------|-------------------|-----------------|-------------6\4-4-|-6---------|
D|-------------------|-------------------|-----------------|-------------------|-----------|
A|-------------------|-------------------|-----------------|-------------------|-----------|
E|-------------------|-------------------|-----------------|-------------------|-----------|
   '    '    '    '       '   '   '   '    '    '   '   '      '   '   '   '     '   ' ' '
   (C#m)
e|---------|
B|---------|
G|---------|
D|---------|
A|---------|
E|---------|
  ' ' ' '


interlude:

   C#m7          G#m           C#m7          G#m
e|-------------|-------------|-------------|-------------|
B|-------------|-------------|-------------|-------------|
G|-------------|-------------|-------------|-------------|
D|-------------|-9-----------|----9--6-----|-9-----------|
A|----7--7--7--|-6-----------|----------7--|-6-----------|
E|-------------|-------------|-------------|-------------|
   '  '  '  '    '  '  '  '    '  '  '  '    '  '  '  '
   C#m7          G#m           B               (B)
e|-------------|-------------|---------------|-------------|
B|-------------|-------------|---------------|-------------|
G|-------------|-------------|---------------|-------------|
D|----9--6-----|-9--------9--|-----9---------|-------------|
A|----------7--|-------6-----|-9p7\6---------|-------------|
E|-------------|-------------|---------------|-------------|
   '  '  '  '    '  '  '  '    '    '  '  '    '  '  '  '



   C#m                 F#m                    C#m                 F#m
e|-------------------|-9/11---9h11p9-12-----|-------------------|-9/11\9-9--------|
B|-----------9-10----|----------------------|-----------9-10----|-----------------|
G|----9/11-----------|----------------------|----9/11-----------|-----------------|
D|-------------------|----------------------|-------------------|-----------------|
A|-------------------|----------------------|-------------------|-----------------|
E|-------------------|----------------------|-------------------|-----------------|
   '    '    '    '       '   '      '   '    '    '    '    '       '   '  '  '
   C#m                 F#m                 C#m/G             B                 C#m
e|-------------------|-9/11\9---9-12-----|---11/12--9~~\5--|-5-4-2-----------|---4-------|
B|-----------9-10----|-------------------|-----------------|-----------------|-----------|
G|----9/11-----------|-------------------|-----------------|-----------6\4-4-|-6---------|
D|-------------------|-------------------|-----------------|-----------------|-----------|
A|-------------------|-------------------|-----------------|-----------------|-----------|
E|-------------------|-------------------|-----------------|-----------------|-----------|
   '    '    '    '       '   '   '   '    '    '   '   '    '   '   '   '     '   ' ' '
   F#m             C#m           C#m             F#m
e|---------------|-------------|---------------|-------------|
B|---------------|-------------|---------------|-------------|
G|---------------|-------------|---------------|-------------|  (xn)
D|---------------|-------------|---------------|-------------|
A|---------6/7-6-|-4-----------|---------6/7-6-|-4-----------|
E|-------4-------|-------------|-------4-------|-------------|
   ' ' '     '     '  '  '  '    ' ' '     '     '  '  '  '
________________________________________________________________________________________
comments
We did not receive enough feedback on this tab! Please rate:
print report bad tab
1 2 3 4 5
I want to post or [tab]
guest
You may want to rate the tab now too:
select rating
Please do not post tabs as comments. Select "correction" instead!