Oops, an error
Loading. Please wait.

Sleepwalk Tab

version 6
version 6
27,013 views 93 this week
no commentswrite comment
1 2 3 4 5
accurate
x 5
add to favorites
launch autoscroll
font size
0
reset
how to read this tab
guitar tuner
Tab Pro tools
  • play this tab
  • loop segment
  • change instrument
  • show fretboard
  • metronome
×
Best way to learn
"Sleepwalk"
Autoscroll
slow
fast
+/-
esc
set tempo
stop
Contributor
-----------------------------------------------------------------------------
                             SLEEPWALK - Santo & Johnny
-----------------------------------------------------------------------------

I tabbed this song out for a friend of mine. Don't know if it's completely correct
but this is the way I enjoy playing it. Hope you enjoy it as well because this
song is the bees knees.

Tuning: Standard
Tabbed by: N.Rodriguez

00:01

E|---------6-6-6-------------------------------------------------------------|
B|-6-6-6---6-6-6----------------9/11/18\13-----------------------------------|
G|-6-6-6-----------2-2-2-2-2-5---------------3--3--3-3-5---------------------|
D|-----------------4-4-4-4-4-6---------------4--4--4-4-6---------------------|
A|---------------------------------------------------------------------------|
E|---------------------------------------------------------------------------|

00:15

E|-9---------------------9---------------------------------------------------|
B|----9------9-10-9---------9-9------9-10-9------9-----9---------------------|
G|--------11---------11-----------11---------11-----10--10-------------------|
D|---------------------------------------------------------11-8-8---8/11-11--|
A|---------------------------------------------------------------------------|
E|---------------------------------------------------------------------------|

E|---------------------------------------------------------------------------|
B|------------------9/11/18\13-----------------------------------------------|
G|-10-10--10-10-10-----------------------------------------------------------|
D|------------------------------8-8-8-8/10-----------------------------------|
A|---------------------------------------------------------------------------|
E|---------------------------------------------------------------------------|

00:46

E|-9---------------------9---------------------------------------------------|
B|----9------9-10-9---------9-9------9-10-9------9-----9---------------------|
G|--------11---------11-----------11---------11-----10--10-------------------|
D|---------------------------------------------------------11-8-8---8/11-11--|
A|---------------------------------------------------------------------------|
E|---------------------------------------------------------------------------|

E|---------------------------------------------------------------------------|
B|---------------------------------------------------------------------------|
G|-10-10-10-10---------------------------------------------------------------|
D|--------------11--8-8-8-8/11-----------------------------------------------|
A|---------------------------------------------------------------------------|
E|---------------------------------------------------------------------------|

01:15

E|-------------11h13-11h13--11-9--------11h13-11--9--------------------------|
B|----9/11-11--------------------10-10--------------9-9--9/11-------9--------|
G|------------------------------------------------------------9h10-----------|
D|-11------------------------------------------------------------------------|
A|---------------------------------------------------------------------------|
E|---------------------------------------------------------------------------|

E|-------------11h13-11-----9--------11h13-11--9-----------------------------|
B|----9/11-11------------11---10-10--------------9-9--9/12-12--12-9----------|
G|---------------------------------------------------------------------------|
D|-11------------------------------------------------------------------------|
A|---------------------------------------------------------------------------|
E|---------------------------------------------------------------------------|

01:47

E|-9---------------------9---------------------------------------------------|
B|----9------9-10-9---------9-9------9-10-9------9-----9---------------------|
G|--------11---------11-----------11---------11-----10--10-------------------|
D|---------------------------------------------------------11-8-8---8/11-11--|
A|---------------------------------------------------------------------------|
E|---------------------------------------------------------------------------|

E|---------------------------------------------------------------------------|
B|---------------9/11/18\13--------------------------------------------------|
G|-10-10--9-8----------------------------------------------------------------|
D|---------------------------------------------------------------------------|
A|---------------------------------------------------------------------------|
E|---------------------------------------------------------------------------|

| /  slide up
| \  slide down
| h  hammer-on
=============================================================================
comments
print report bad tab
I want to post or [tab]
guest
You may want to rate the tab now too:
select rating
Please do not post tabs as comments. Select "correction" instead!