Oops, an error
Loading. Please wait.

Sleepwalk Tab

version 7
version 7
2,364 views 12 this week
no commentswrite comment
1 2 3 4 5
please rate
add to favorites
launch autoscroll
font size
0
reset
how to read this tab
guitar tuner
Tab Pro tools
  • play this tab
  • loop segment
  • change instrument
  • show fretboard
  • metronome
×
Best way to learn
"Sleepwalk"
Autoscroll
slow
fast
+/-
esc
set tempo
stop
Contributor
Difficulty
intermediate
E|---------------5--5--5-------------------------12-----------------------------------------|
B|----- 5--5--5--5--5--5---------------------10------12--------------12b/8--6--8--9---8--6--|
G|--5--5--5--5-----------1--1--1--1--4--12--------------2--2--3--4---------7--9--10--9------|
D|-----------------------3--3--3--3--5-------------------3--3--4--5-------------------------|
A|------------------------------------------------------------------------------------------|
E|------------------------------------------------------------------------------------------|



E|------------------------------------------------------------12--------------------|
B|--12b8--6--8--9---8-----8------------------5--5--5------10------12----------------|
G|--------7--9--10--9--9-----9---------5--5--4-----5--12--------------2--2--3--4----|
D|------------------------------10--7--------5-------------------------3--3--4--5---|
A|----------------------------------------------------------------------------------|
E|----------------------------------------------------------------------------------|



E|--------------------------------------------------------------------------------------------|
B|--12b8--6--8--9---8--6--12b8--6--8--9---8-----6/8--8------------------5--5--5---------------|
G|--------7--9--10--9-----------7--9--10--9--9----------9---------5--5--4-----5--2--2--2--5---|
D|----------------------------------------------------------10--7--------5--------3--3--3--5--|
A|--------------------------------------------------------------------------------------------|
E|--------------------------------------------------------------------------------------------|



E|--2--------11b11b10--8-----11b10--8----------------------------------------11b11b10--8-----|
B|--2--1/10---------------9------------8--8--10--10b10-----8-----------1/10---------------9--|
G|--2----------------------------------9----------------9-----9--8--7------------------------|
D|--1----------------------------------------------------------------------------------------|
A|--2----------------------------------------------------------------------------------------|
E|-------------------------------------------------------------------------------------------|



E|--11b10--8--------------------------------------------------------------------------|
B|------------8--11--8--12b8--6--8--9---8--6--12b8--6--8--9---8-----6/8--8------------|
G|------------7--10--7--------7--9--10--9-----------7--9--10--9--9----------9---------|
D|-----------------------------------------------------------------------------10--7--|
A|------------------------------------------------------------------------------------|
E|------------------------------------------------------------------------------------|



E|-------------------------12------------------|
B|---------5--4--3------10------12--8--9--10---|
G|---5--5-----------12--------------7--8--9----|
D|---------5--4--3------------------7--9--10---|
A|----------------------------------7--8-------|
E|---------------------------------------8-----|
http://www.guitartabcreator.com
comments
We did not receive enough feedback on this tab! Please rate:
print report bad tab
1 2 3 4 5
I want to post or [tab]
guest
You may want to rate the tab now too:
select rating
Please do not post tabs as comments. Select "correction" instead!