Oops, an error
Loading. Please wait.

Igual Que Ayer Tab

16 views 1 this week
no commentswrite comment
1 2 3 4 5
3 more votes to show rating
add to favorites
launch autoscroll
font size
0
reset
how to read this tab
guitar tuner
Autoscroll
slow
fast
+/-
esc
set tempo
stop
Help us to improve Ultimate-Guitar.com Take our survey!
×
INTRO

ESTA INTRO VE EN TODA LA CANCION
ESCUCHELAN BIEN......


        C
-----------------0---3---0----------------------------------------
--------1--1--3--3---1---3----------------------------------------
--------0--0--0--------------3----1-------------------------------  (x2)
-----------------------------0----0-------------------------------
--------3---------------------------------------------------------
------------------------------------------------------------------

        F
-----------------0---3---0----------------------------------------
--------1--1--3--3---1---3----------------------------------------
--------0--0--0--------------3----1-------------------------------  (x2)
--------2--------------------0----0-------------------------------
------------------------------------------------------------------
------------------------------------------------------------------


C                  F
Volteo y miro lo lejano
C                  F
He caminado esta vez
C                         F
Lo tibio se ah tornado helado
C                      F
Un dia dura lo que un mes


Dm                     C
Mil direcciones esperando
Dm                       C
Me dan la opcion de no perder
Cm                    C
Mi corazon esta llorando
 F
Por Ti otra vez
C       F
Otra vez

//C,F//
INTRO OTRAVEZ

C                        F
Surgio un destello a mi lado
C                       F
Lagrimas viajan junto a El
C                        F
Tus brazos me estan extrañando
C                 F
Mas que ayer esta vez


Dm                 C
Y vas hacia donde yo ando
Dm                    C
Sin preguntar como y porque?
Dm                  C
Tu corazon esta llorando
  F
Por mi otra vez
C
Otra vez

D                    C
Y llegas y estoy temblando
REm                 C
Y tan cansado de perder
Dm                   C
Y solo el roce de Tus manos
Dm                     C
Me dice que todo esta bien
           F               C               F
Todo esta bien, Todo esta bien, Todo esta bien


Dm                   C
Y llegas y estoy temblando
Dm                   C
y tan cansado de perder
 Dm                    C
Y solo el roce de tus manos
Dm                     C
Me dice que todo esta bien
            F              C
Todo esta bien, Igual que ayer
            F              C
Todo esta bien, Igual que ayer


ESPERO KE LES AYUDE ESTA TRANSCRIPCION
DIOS LOS BENDIGA
CUALQUIER DUDA ESCRIBANME A pavel-08@
Suggest correction
Give kudos to tab author, rate the tab!
1 2 3 4 5
comments
print report bad tab
guest
You may want to rate the tab now too:
select rating
Wanna post a correction for this tab? Suggest correction