Oops, an error
Loading. Please wait.

Relax Chords

27 views 3 this week
no commentswrite comment
1 2 3 4 5
3 more votes to show rating
add to favorites
launch autoscroll
font size
0
reset
transpose
0
reset
display chords
guitar tuner
×
Best way to learn
"Relax"
Autoscroll
slow
fast
+/-
esc
set tempo
stop
Intro


e||-----------------------------------------9--9--7---------|
B||---9----7s5------------5--5s7s9--7s5--6-----------9-7-9--|
G||--------------6--4--6------------------------------------|
D||---------------------------------------------------------|
A||---------------------------------------------------------|
E||---------------------------------------------------------|


E           A
Puedo respirar
       B         E
es un día para amar
           A
Para comenzar
E              A
Hoy muere el afán
        B          E
no me voy a preocupar
                A
Por lo que vendrá

C#m                          F#m
 Hoy decido ver de nuevo el sol
                C#m
Recibir y dar amor
                        F#m
Para mi la vida hoy comenzó

C#m                  F#m
El otoño para mi emigró
                   C#m
Hojas secas ya no hay
                      E A B
El verano me logró alcanzar

C#m                       F#m
Al de al lado voy a sonreír
                    C#m
Para hacerle mas feliz
                            F#m
Y a los suyo ya no haga sufrir

C#m                      F#m
Al estrés ya no daré lugar
                  C#m
Llevaré la vida Light
                         E A B
Basta cada día su propio mal

Coro:

//
E           A
Puedo respirar
       B         E
es un día para amar
           A
Para comenzar
E              A
Hoy muere el afán
        B          E
no me voy a preocupar
                A
Por lo que vendrá

//

Intro

e||-----------------------------------------9--9--7---------|
B||---9----7s5------------5--5s7s9--7s5--6-----------9-7-9--|
G||--------------6--4--6------------------------------------|
D||---------------------------------------------------------|
A||---------------------------------------------------------|
E||---------------------------------------------------------|


C#m                  F#m
El otoño para mi emigró
                   C#m
Hojas secas ya no hay
                      E A B
El verano me logró alcanzar


Puedo respirar...
Suggest correction
Give kudos to tab author, rate the tab!
1 2 3 4 5
comments
print report bad tab
guest
You may want to rate the tab now too:
select rating
Wanna post a correction for this tab? Suggest correction