Oops, an error
Loading. Please wait.

Relax Tab

68 views 3 this week
no commentswrite comment
1 2 3 4 5
3 more votes to show rating
add to favorites
launch autoscroll
font size
0
reset
how to read this tab
guitar tuner
×
Best way to learn
"Relax"
Autoscroll
slow
fast
+/-
esc
set tempo
stop
Intro
///F#m-Am-B-D-E///
E||------------------------------------------------------------|
A||--------------11--------------------------------------------|
D||----------11----11---------------11-------------------------|
G||-----11-9----------8-9-11---11-9-------------------13-11-13-|x2
B||-7s9----------------------9-----------12h14-14-12-----------|
e||------------------------------------------------------------|
           A
Puedo respirar
       B         E
es un día para amar
           A
Para comenzar
E              A
Hoy muere el afán
        B          E
no me voy a preocupar
                A
Por lo que vendrá
C#m                          F#m
 Hoy decido ver de nuevo el sol
                C#m
Recibir y dar amor
                        F#m
Para mi la vida hoy comenzó
C#m                  F#m
El otoño para mi emigró
                   C#m
Hojas secas ya no hay
                      D  E
El verano me logró alcanzar
C#m                       F#m
Al de al lado voy a sonreír
                    C#m
Para hacerle mas feliz
                            F#m
Y a los suyo ya no haga sufrir
C#m                      F#m
Al estrés ya no daré lugar
                  C#m
Llevaré la vida Light
                         D E
Basta cada día su propio mal

Coro://
E           A
Puedo respirar
       B         E
es un día para amar
           A
Para comenzar
E              A
Hoy muere el afán
        B          E
no me voy a preocupar
                A  E
Por lo que vendrá

/// F#m-Am-B-D-E///
C#m                  F#m
El otoño para mi emigró
                   C#m
Hojas secas ya no hay
                      D D E
El verano me logró alcanzar

Coro

Final
// F#m-Am-B-D-E//
E||-------------------------------------------------------------|
A||-------------------------------------------------------------|
D||-------------------------------------------------------------|
G||---6-----------------------6-------------------------6-------|
B||-7---7-9-------5-7s9-7s9-7 ---7-9-----------7s9--7-5---------|
e||----------5--7--------------------5-7-5-7--------------------|
En el Intro se tocan con  los power chords
Suggest correction
Give kudos to tab author, rate the tab!
1 2 3 4 5
comments
print report bad tab
guest
You may want to rate the tab now too:
select rating
Wanna post a correction for this tab? Suggest correction