Oops, an error
Loading. Please wait.

Seguridad Latente Tab

80 views 3 this week
no commentswrite comment
1 2 3 4 5
3 more votes to show rating
add to favorites
launch autoscroll
font size
0
reset
how to read this tab
guitar tuner
×
Best way to learn
"Seguridad Latente"
Autoscroll
slow
fast
+/-
esc
set tempo
stop
      D

||Cada paso que doy cada día que pasa                                 ||

     A
||me acerca A MI destino y esta puesta mi mirada                      ||

     D
||mi maleta esta lista lo que llevo es suficiente he dejado           ||

     A
||atrás todo lo que me de tiene,                                      ||

     D                                         A
||el día de hoy se que viviré por siempre en mi corazón               ||

                              D
||hay seguridad latente, hace unos años tenia terror ante la muerte   ||

    D                                A
||no sabia donde iba  y mi  mente era dominada por pensamientos       ||

                          D
|| y conflictos y no encontraba razón pastar vivo,                    ||

     D
||no dormía, sola mente sobrevivía,                                   ||

    A
||no encontraba propósito para mi vida,                               ||

    D                                      A
||ahora se que tengo que esperar el día muy pronto muy pronto         ||


||llegara.                                                            ||

    D
||Todo cambio en el momento que  entendí                              ||

                          A
||que es la tierra que ahora piso no es para mi.                      ||

________________________________________________________________________
esto de aqui lo puede tocar con delay para que suene como la original


        :::::::::::CORO::::::::::::


       D                                            A
Y tu que te sientes seguro, quien te garantiza el futuro que
  D                         A
es lo que te vuelve mas fuerte
A                              D
como para vencer la muerte. Hay algo que cambia la vida y esa
            A
vida nunca termina es lo
                 D                                 A-D
que nos trae el consuelo y lo que nos lleva hasta el cielo.


       :::::::::::::SOLO DE GUITARRA:::::::::::::::

1a||-------------------------------------------------------------------||
2a||-------------------------------------------------------------------||
3a||-5s7-7--7-9--7-9-5-7-5--------5---5----5-7-7---7-9-7-9-5-7-5-------||
4a||-----------------------7-7--7---7---7------------------------7v----||x2
5a||-------------------------------------------------------------------||
6a||-------------------------------------------------------------------||


     D*                             A*
//La esperanza que yo tengo no es de este mundo no, no es de
      A*
este mundo
     D*                     A*
el futuro que me espera no es de este mundo no ,no es de este

  A*
mundo//


       D*                             A*
4a||-5h7---7------              4a||-5h7--7----
5a||-5-----5------              5a||-5h7--7----


3a||---5s7--7s9-s5--7--7s9--14v--------||

        ::::::::::::SE REPITE CORRO:::::::::

1a||-----------------------------------------------------------------||
2a||-----------------------------------------------------------------||
3a||-5s7-7--7-9--7-9-5-7-5--------5---5----5-7-7---7-9-7-9-5-7-5-----||
4a||-----------------------7-7--7---7---7------------------------7v--||
5a||-----------------------------------------------------------------||
6a||-----------------------------------------------------------------||


      A                                        D
De una cosa si estoy seguro que Dios es quien garantiza es
A
futuro el lo que trastorna la
           D                                            A
mente esperanza para mi gente, es lo que nos cambia la vida y
     D                    A
esa vida nunca termina es lo
D                                                     A-D
que nos trae el consuelo y lo que no lleva asta el cielo.


      A                     D                       A
//La esperanza que yo tengo no es de este mundo no, no es de
       D
este mundo
     A                             D                    A
el futuro que me espera no es de este mundo no ,no es de este
  D
mundo//

Espero le entiendan a la transcripcion, y al tab.
ya saben cualquier duda o correccion me lo hacen saber a
jrojowolf@ o a http//
God bless you
Suggest correction
Give kudos to tab author, rate the tab!
1 2 3 4 5
comments
print report bad tab
guest
You may want to rate the tab now too:
select rating
Wanna post a correction for this tab? Suggest correction