Oops, an error
Loading. Please wait.

Sonambulo Tab

version 1
version 1

Whole song

227 views 3 this week
no commentswrite comment
1 2 3 4 5
3 more votes to show rating
add to favorites
launch autoscroll
font size
0
reset
how to read this tab
guitar tuner
Autoscroll
slow
fast
+/-
esc
set tempo
stop
Help us to improve Ultimate-Guitar.com Take our survey!
×
Sonámbulo de Santo y Johnny

Quiero mandar un saludo al Generación 2002-2005 del
Plantel Conalep 139 de Ometepec, Gro. Y en especial para
Adriana R.
 Nena me Gustas y te dedico esta Rola 

La Neta del Plante que esta Rola se merece un Gran respeto
No digo que mi Tab es mejor, solo que.. tiene mayor calidad.

Intro:

     C         Am        Fm    G7             C   Am  Fm    G7
E|----------3/5-5-5-5--------------------10/12-8~~-------------|
B|-3/5-5-5--3/5-5-5-5---------------8/10~~---------------------|
G|-3/5-5-5-------------1-1-1-1-1/4---------------1/2--2--2-2/4-|
D|---------------------3-3-3-3-3/5---------------2/3--3--3-3/5-|
A|-------------------------------------------------------------|
E|-------------------------------------------------------------|

Verse:

     C   Am Fm     G7           C  Am Fm     G7
E|-7/8~~----------------------7/8~~-------------------|
B|-------7~~-6-8-8/9---8~~6--------7~~-6-8-8/9---8~~6-|
G|-----------7-9-9/10--9~~7------------7-9-9/10--9~~7-|
D|----------------------------------------------------|
A|----------------------------------------------------|
E|----------------------------------------------------|

     C              Am    Fm
E|-------------------------|
B|-6/9------9-------6------|
G|-7/10--10---10----7---3--|
D|----------------------5--|
A|-------------------------|
E|-------------------------|

        G7       C            Am   F        G7    C  Am  Fm   G7
E|----------------------10/12-8~~---------------7/8~~------------------|
B|-1-1/5--5--5-5-5-8/10~~----------------------------7~~6-8-8/9---8~~6-|
G|-2-2/5--5--5-5-5---------------1/2--2--2-2/4----------7-9-9/10--9~~7-|
D|-------------------------------2/3--3--3-3/5-------------------------|
A|---------------------------------------------------------------------|
E|---------------------------------------------------------------------|

     C  Am  Fm   G7           C              Am     Fm
E|-7/8~~----------------------------------------------|
B|------7~~6-8-8/9---8--6---6/9-------9-------6-------|
G|---------7-9-9/10--9--7---7/10---10---10----7--3--3-|
D|-----------------------------------------------5--5-|
A|----------------------------------------------------|
E|----------------------------------------------------|

         G7              F         C
E|-----------------------------------|
B|-1----1-1-5--5--5-5----------------|
G|---2--2-2-5--5--5-5-5--2--2--2-2-5-|
D|--------------------5--3--3--3-3-5-|
A|-----------------------------------|
E|-----------------------------------|

           F           Fm              C             C7
E|---------12-12--10-8------12--10--8--------------0----|
B|---10----------------9~~------------8-8----10------8~~|
G|-5----------------------------------9-9----9-------9~~|
D|------------------------------------------------------|
A|------------------------------------------------------|
E|------------------------------------------------------|

           F          Fm              G7           G7+9
E|---------12--10-5/8-----12--10--8---------------------|
B|---10---------------9~~-----------8-8--8-10--10--10-8-|
G|-5--------------------------------9-9--9-9---9---9--9-|
D|------------------------------------------------------|
A|------------------------------------------------------|
E|------------------------------------------------------|

     C  Am Fm    G7           C  Am Fm    G7
E|-7/8~~--------------------7/8~~------------------|
B|------7~~6-8-8/9---8~~6--------7~~6-8-8/9---8~~6-|
G|---------7-9-9/10--9~~7-----------7-9-9/10--9~~7-|
D|-------------------------------------------------|
A|-------------------------------------------------|
E|-------------------------------------------------|

     C          Am     Fm
E|-------------------------|
B|-6/9------9------6-------|
G|-7/10--10---10---7--3--3-|
D|--------------------5--5-|
A|-------------------------|
E|-------------------------|

   G7           G7+9             C6add9  G+7b9  C6add9
E|-------------------------24/19~~----------------6-|
B|-1-1-5--5--4--3----20/22~~---------6-----12-----6-|
G|-2-2-5--5--5--4--------------------6-----12-----6-|
D|-----------------------------------6-----11-----6-|
A|-----------------------------------8-----12-----8-|
E|-----------------------------------9-----12-----9-|

Dudas, Cometarios ó Sugerencias favor de enviarlos
al siguiente correo:la_guitarra_triste@

Nota: Para los de la Cuerda espero que sea este tab el que elijan,
ya que en lo paraticular me gusta mas.
Suggest correction
Give kudos to tab author, rate the tab!
1 2 3 4 5
comments
print report bad tab
guest
You may want to rate the tab now too:
select rating
Wanna post a correction for this tab? Suggest correction