Oops, an error
Loading. Please wait.

Sonambulo Tab

version 2
version 2

Whole song

231 views 3 this week
no commentswrite comment
1 2 3 4 5
3 more votes to show rating
add to favorites
launch autoscroll
font size
0
reset
how to read this tab
guitar tuner
×
Best way to learn
"Sonambulo"
Autoscroll
slow
fast
+/-
esc
set tempo
stop
Sleepwalk Tab de Santo y Johnny

Quiero dedicar esta Rola a la Generación 2002-2005 de la Carrera
De Profesional Técnico en Informática del Plantel Conalep 139
De Ometepec en el Estado de Guerrero y en Especial a todos los
Guitarristas y Rockeros de Esta Chida Generación.

Intro:
     C          Am        Fm       G7
E|------------------------------------------|
B|-3/5-5-5----------------------------------|
G|-3/5-5-5--/14-14-14-----------------------|
D|----------/14-14-14---6-6-6---------------|
A|----------------------6-6-6--10-10/12--12-|
E|-----------------------------10-10/12--12-|

        C  Am  Fm       G7
E|------------------------------|
B|-8/10/17/12-------------------|
G|----------------2-2--2-2--4---|
D|----------------3-3--3-3--5---|
A|------------------------------|
E|------------------------------|

Verse:
     C   Am Fm       G7
E|-8/10--/5----3--5--/6--5---3-----|
B|-------------3--5--/6--5---------|
G|---------------------------------|
D|---------------------------------|
A|---------------------------------|
E|---------------------------------|
     C      Am Fm        G7         C         Am    Fm..
E|-8/10-/5---5-----3--5--/6--5---3/-5---5------------|
B|-----------------3--5--/6--5--------5---5----------|
G|------------------------------------------5--------|
D|---------------------------------------------7--7--|
A|---------------------------------------------------|
E|---------------------------------------------------|
         G7  C           Am F    G7
E|---------------------------------|
B|-5-5---5-5-5---8/10/17/12--------|
G|-------5-5-5--------------2-2-2-4|
D|--------------------------3-3-3-5|
A|---------------------------------|
E|---------------------------------|

     C   Am Fm       G7
E|-8/10--/5----3--5--/6--5---3-----|
B|-------------3--5--/6--5---------|
G|---------------------------------|
D|---------------------------------|
A|---------------------------------|
E|---------------------------------|

     C    Am Fm       G7         C         Am      Fm?
E|-8/10--/5--5--3--5--/6--5---3/-5---5-------------|
B|--------------3--5--/6--5--------5---5-----------|
G|--------------------------------------5----------|
D|-----------------------------------------7--7----|
A|-------------------------------------------------|
E|-------------------------------------------------|

         G7  C         F          C
E|-----------------------------------|
B|-5-5---5---5--5-5---------------5--|
G|-------5---5--5-5-5--2--2--2-3--5--|
D|------------------5--3--3--2-3-----|
A|-----------------------------------|
E|-----------------------------------|

        F                      Fm
E|----5/7--7---/14--14---12--10--------14--12/10-|
B|------------------------------9---9------------|
G|-5---------------------------------------------|
D|-----------------------------------------------|
A|-----------------------------------------------|
E|-----------------------------------------------|
    C                      C7
E|-10--3/5-5----5/7--/5-------5-|
B|-----3/5-5--5---------4-5-----|
G|------------------------------|
D|------------------------------|
A|------------------------------|
       F                         Fm
E|---5/7---7--/14--12--/10----10--------14-|
B|-------------------------10-----9-9------|
G|-5---------------------------------------|
D|-----------------------------------------|
A|-----------------------------------------|
E|-----------------------------------------|
G7                 G7+9
E|-12/10--10----------------------------|
B|--------------------------------------|
G|-----------/12-12-12--/15-15--15/12---|
D|-----------/12-12-12--/15-15--15/12---|
A|--------------------------------------|
E|--------------------------------------|

     C    Am   Fm         G7
E|-8/10--/5--5-----3--5--/6--5---3-----|
B|-----------------3--5--/6--5---------|
G|-------------------------------------|
D|-------------------------------------|
A|-------------------------------------|
E|-------------------------------------|
      C     Am Fm       G7         C         Am     Fm
E|-8/10--/5--5----3--5--/6--5---3/-5---5-------------------|
B|----------------3--5--/6--5--------5---5-----------------|
G|-----------------------------------------5-------3/5--5--|
D|-------------------------------------------7--7----------|
A|---------------------------------------------------------|
E|---------------------------------------------------------|

    G7     G7+9          C6add9  G+7b9 C6add9(IX)
E|----------------------------|
B|--5--5--4--3---8/10/17/12---|
G|--5--5--5--4----------------|
D|----------------------------|
A|----------------------------|
E|----------------------------|

NOTA: PARA OBTENER UN SONIDO IGUAL A LA ORIGINAL,
UTILIZAR UN ?SLIDE? ACOMPAÑADO
DE UNA SEGUNDA GUITARRA, ARMONIZADA EN DO.

ACORDES USADOS:

C:          8/10/10988
Am:         577555
Fm:         133111
G7:         353463
F:          133211
C7:         8/10/89/11/8
G7+9:       35X466
C6add9:     X32233
G+7b9:      XX3444
C6add9(IX): XX10/9/10/10.

Sleepwalk =Sonambulo, Guachen mi otra Tab ya que es el mismo,
claro el anterior Esta diseñado para una Lira totalmente acústica.
Suggest correction
Give kudos to tab author, rate the tab!
1 2 3 4 5
comments
print report bad tab
guest
You may want to rate the tab now too:
select rating
Wanna post a correction for this tab? Suggest correction