Oops, an error
Loading. Please wait.

Y La Amo Tab

version 2
version 2

Whole song

70 views 1 this week
no commentswrite comment
1 2 3 4 5
3 more votes to show rating
add to favorites
launch autoscroll
font size
0
reset
how to read this tab
guitar tuner
×
Best way to learn
"Y La Amo"
Autoscroll
slow
fast
+/-
esc
set tempo
stop
(VeRsIoN dE: And I love her - THE BEEATLES)
Ok, ok, Checkense algo que se me olvido aclarar,
si esta canion la van a tocar en la guitarra acustica
en las partes que van asi: -14b14v~~-|
la deben tocar asi: -15v~~-| si no lo acen asi se oye mal.
Si lo acen en la elctrica cuando acen el bend deben alcanzar
con este el tono del traste 15 y vulver a tocar suabemente
la cuerda otra vez cuando ya esta en el tono,
para despues regresar a su lugar lentamente.

Símbolos:
~ Dejar vibrar.

v Vibrato, se hace, haciendo
vibrar el dedo muy rápido sobre la nota.

b Bend, se estira la cuerda.

/ Slide, se desliza el dedo
hasta la siguiente nota

() Nota fantasma, se toca muy levemente
NOTA:
xbxv~~ <---Cuando viene así se toca
la primera nota con bend y la segunda
se vuelve a tocar pero sin el efecto
de bend y se deja sonando.
Todo esto se hace un poco lento.

xb(x)v~~ <--- Cuando viene así se hace
lo mismo que el anterior pero mucho
mas rápido y la nota que esta
entre el paréntesis casi no se
debe escuchar.

Intro:
e|----------------------------------------------------|
B|----------------------------------------------------|
G|----------------------------------------------9-8-6-|
D|--------------------------------------------9-------|
A|---7-6-4------7-6-4------7-6-4-----7-6-4------------|
E|-7----------7----------7---------7------------------|
00:19
e|-------------------------------------------------|
B|-------10/11-15~--13-17bv~-------10/11~-14b14v~~-|
G|10/12~---------------------10/12----?------------|
D|-------------------------------------------------|
A|-------------------------------------------------|
E|-------------------------------------------------|

e|---------------------------|
B|-------10/11-15~--13-17bv~-|
G|10/12~---------------------|
D|---------------------------|
A|---------------------------|
E|---------------------------|
00:33
e|--------------------------------------------|
B|--17~--14~----------------------------------|
G|-----------14--13-13/11~----------11/13~~---|
D|-------------------------11-9-11~-----------|
A|--------------------------------------------|
E|--------------------------------------------|
00:40
e|----------|
B|----------|
G|---9-8-6--|
D|-9--------|
A|----------|
E|----------|
00:42
e|-------------------------------------------------|
B|-------10/11-15~--13-17bv~-------10/11~-14b14v~~-|
G|10/12~---------------------10/12----?------------|
D|-------------------------------------------------|
A|-------------------------------------------------|
E|-------------------------------------------------|

e|---------------------------|
B|-------10/11-15~--13-17bv~-|
G|10/12~---------------------|
D|---------------------------|
A|---------------------------|
E|---------------------------|
00:55
e|------------------------------------------|-----------|
B|--17~--14~--------------------------------|--------9~-|
G|-----------14--13-13/11~----------11/13~~-|-9-7-9~----|
D|-------------------------11-9-11~---------|-----------|
A|------------------------------------------|-----------|
E|------------------------------------------|-----------|
01:04
e|----------------------------------------------------|
B|----------12~--12-9-7-9~--12-9-7-10~-12-10-9/5b~----|
G|-11-11-11----------------------?--------------------|
D|----------------------------------------------------|
A|----------------------------------------------------|
E|----------------------------------------------------|
01:21
e|----------|
B|----------|
G|---9-8-6--|
D|-9--------|
A|----------|
E|----------|
01:22
e|------------------------------------------------------------------|
B|-------10/11(11)-15~-13-12-13-17bv~--------10/11(11)-14b(14)v~~---|
G|10/12~------------------------------10/12~------------------------|
D|------------------------------------------------------------------|
A|------------------------------------------------------------------|
E|------------------------------------------------------------------|

e|---------------------------|
B|-------10/11-15~--13-17bv~-|
G|10/12~---------------------|
D|---------------------------|
A|---------------------------|
E|---------------------------|
01:35
e|------------------------------------------|-----------|
B|--17~--14~--------------------------------|--------9~-|
G|-----------14--13-13/11~----------11/13~~-|-9-7-9~----|
D|-------------------------11-9-11~---------|-----------|
A|------------------------------------------|-----------|
E|------------------------------------------|-----------|
01:43
e|------------------------------------------------------------|
B|------------------------------------------------------------|
G|------------------------------------------------------------|
D|------------------------------------------------------------|
A|---7-6-4-----7-6-4-----7-6-4-----7-6-4-----7-6-4-----7-6-4~-|
E|-7---------7---------7---------7---------7---------7--------|


Y los aordes de la cancion
son casi los mismo que la original de los
beatles.
Suggest correction
Give kudos to tab author, rate the tab!
1 2 3 4 5
comments
print report bad tab
guest
You may want to rate the tab now too:
select rating
Wanna post a correction for this tab? Suggest correction