Oops, an error
Loading. Please wait.

Arco Chords

38 views 1 this week
no commentswrite comment
1 2 3 4 5
3 more votes to show rating
add to favorites
launch autoscroll
font size
0
reset
transpose
0
reset
display chords
guitar tuner
×
Best way to learn
"Arco"
Autoscroll
slow
fast
+/-
esc
set tempo
stop
El tema es casi todo igual a la intro menos el estribillo, y un puente 
que tiene en el medio de las estrofas. Los acordes pueden hacerlos como mayores o en 5t
s de acuerdo a su gusto. La Intro si esta en mayores menos el acorde D*.
D* ( de sexta a primera) x587xx

Intro: Eb - D* - C# - G# - B - F# - G# - A#

Eb       D*
Temo ser libre al fin.
      C#
Volver a aprender
    G#
A decir que no.
B        F#
Nada será...
G#                   A#
Sólo una forma de inspiración.
Puedo quedarme así.
Mirándote fosforecer.
Rizos caracol...
Toda tu forma de inspiración.

Puente:
Eb - G# - F# - A#

(Como intro)

Suelto todo el cordel.
Libérote, de mi canción.
Cuadros de dos...
vencen mi fuerte respiración.
Huelo felino ser.
Tranquilidad, meciéndome.
Siestas al sol...
Sólo una forma de inspiración.

Puente:
Eb - G# - F# - A#

Estribillo:
Eb     F#       F             Eb
Poder cruzar. Vencer el arco.
   F#     F             Eb
A ser normal. Tensar el arco.
  F#  F              Eb
Imaginar. Torcer el arco.
  F#     G#
Harto. Cauto...

Intro

(Como intro)

Temo ser libre al fin.
Volver a aprender
A decir que no.
Nada será...
Sólo una forma de inspiración.
Puedo quedarme así.
Mirándote fosforecer.
Rizos caracol...
Toda tu forma de inspiración.

Puente

Estribillo:
Poder cruzar. Vencer el arco.
A ser normal. Tensar el arco.
Imaginar. Torcer el arco.
Harto. Cauto...

Punteo

  Eb                 A                       Eb                 A
E|--------------------------------------------------------------------
B|--------------9---9-(10)---9-(10)-9-------------------------9-(10)-9
G|-8---11---8---------------------------11---8---6---8---11-----------
D|--------------------------------------------------------------------
A|--------------------------------------------------------------------
E|--------------------------------------------------------------------
                                  Eb            A    Eb         A
E|--------------------------------11---9---11-------------------------
B|-(10)-9-(10)-9-(10)-9-(10)-9------------------10---------9-(10)-9---
G|---------------------------------------------------8---6------------
D|--------------------------------------------------------------------
A|--------------------------------------------------------------------
E|--------------------------------------------------------------------

E|--------------------------------------------------------------------
B|-(10)-9-(10)-9-(10)-9-(10)-9----------------------------------------
G|--------------------------------------------------------------------
D|--------------------------------------------------------------------
A|--------------------------------------------------------------------
E|--------------------------------------------------------------------


Intro x 2 (la primera ves que repite la intro lo hace sin distorsion y 
con acordes mayores, la segunda ves la hace re polenta y desde el B 
hace lo de abajo)

B          F#       G#      A#
Rizos caracooooooooooool...la la la la

Estribillo:
Poder cruzar. Vencer el arco.
A ser normal. Tensar el arco.
Imaginar. Torcer el arco.
Harto. Cauto...
Suggest correction
Give kudos to tab author, rate the tab!
1 2 3 4 5
comments
print report bad tab
guest
You may want to rate the tab now too:
select rating
Wanna post a correction for this tab? Suggest correction