Oops, an error
Loading. Please wait.

Particulas Tab

15 views 1 this week
no commentswrite comment
1 2 3 4 5
3 more votes to show rating
add to favorites
launch autoscroll
font size
0
reset
how to read this tab
guitar tuner
×
Best way to learn
"Particulas"
Autoscroll
slow
fast
+/-
esc
set tempo
stop
Santos Inocentes - Particulas (guitar)

  intro (flanger) x4     |   El cuerpo de la canción (distortion)
                         |
 d|----------------------|---------------------------------------------------------------|
 a|----------------------|---------------------------------------------------------------|
 f|----------------------|---------------------------------------------------------------|
 c|-1-1--5--8--5-5-5-5-5-|-1-1-1-1--10-10-10-10-8--1-1-1-1--10-10-10-10--5--6------------|
 g|-1-1--5--8--5-5-5-5-5-|-1-1-1-1--10-10-10-10-8--1-1-1-1--10-10-10-10--5--6------------|
 c|-1-1--5--8--5-5-5-5-5-|-1-1-1-1--10-10-10-10-8--1-1-1-1--10-10-10-10--5--6------------|


  Coro - Quiero regresar, voy a destrozar....

 d|----------------------------------|--------------------------------------------------------|
 a|----------------------------------|--------------------------------------------------------|
 f|----------------------------------|--------------------------------------------------------|   
 c|-3-3-3-3-3-3-3-3--6-6-6-6-6-6-6-6-|-3-3-3-3-3-3-3-3-3--6-6-6-6-6-6-6-6-6-6-6-6-6-6-6-6-6-6-|
 g|-3-3-3-3-3-3-3-3--6-6-6-6-6-6-6-6-|-3-3-3-3-3-3-3-3-3--6-6-6-6-6-6-6-6-6-6-6-6-6-6-6-6-6-6-|
 c|-3-3-3-3-3-3-3-3--6-6-6-6-6-6-6-6-|-3-3-3-3-3-3-3-3-3--6-6-6-6-6-6-6-6-6-6-6-6-6-6-6-6-6-6-|
 


  EL final

 d|-----------------------------------------|-------------------------------------------------------|
 a|-----------------------------------------|-------------------------------------------------------|
 f|-----------------------------------------|-------------------------------------------------------|
 c|-6-6-6-6--9-9-9-9-10--4-4-4-4--2-2-2-2-2-|-6-6-6-6--9-9-9-9-9--11-11-11-11--14-13-14-13-14-13-14-|
 g|-6-6-6-6--9-9-9-9-10--4-4-4-4--2-2-2-2-2-|-6-6-6-6--9-9-9-9-9--11-11-11-11--14-13-14-13-14-13-14-|
 c|-6-6-6-6--9-9-9-9-10--4-4-4-4--2-2-2-2-2-|-6-6-6-6--9-9-9-9-9--11-11-11-11--14-13-14-13-14-13-14-|x2

 d|-------------------------------------------|
 a|-9-9-9--7--9-9-9-9--12--7-7-7-7--5-5-5-5-5-|
 f|-8-8-8--6--8-8-8-8--11--6-6-6-6--4-4-4-4-4-|
 c|-6-6-6--4--6-6-6-6---9--4-4-4-4--2-2-2-2-2-|
 g|-------------------------------------------|
 c|-------------------------------------------|x2

                                                                                         By: WaYnE
Suggest correction
Give kudos to tab author, rate the tab!
1 2 3 4 5
comments
print report bad tab
guest
You may want to rate the tab now too:
select rating
Wanna post a correction for this tab? Suggest correction