Oops, an error
Loading. Please wait.

Collapse Bass Tab

version 2
version 2

Whole song

Interactive

497 views 3 this week
no commentswrite comment
1 2 3 4 5
excellent!
x 4
add to favorites
launch autoscroll
font size
0
reset
guitar tuner
Tab Pro tools
  • play this tab
  • loop segment
  • change instrument
  • show fretboard
  • metronome
×
Best way to learn
"Collapse"
Autoscroll
slow
fast
+/-
esc
set tempo
stop
Contributor
Difficulty
Tuning
novice
D G C F A D
Collapse
Saosin
Saosin

Tabbed by Lec Segundo

Tuning: D Tuning (DGCF) 

Legend:

~ - Let Ring

Note:

Chris Plays it with a pick,...
____________________________________________________________________

INTRO

F|-----------------------------------|
C|-----------------------------------|
G|-----------------------------------|
D|--0-0-0-0------------0-0-----------|

INTERLUDE

F|-----------------------------------|
C|-----------------------------------|
G|-3-(x16)--0-(x8)--5-(x8)-----------|
D|-----------------------------------|

VERSE

F|-----------------------------------|
C|-----------------------------------|  2x
G|-7-(x32)--5-(x32)------------------|
D|-----------------------------------|

F|----------------------------|
C|----------------------------|
G|-3-(x16)--5-(x16)-----------|
D|----------------------------|

REFRAIN

F|-----------------------------------|
C|-----------------------------------|
G|-----------------------------------|
D|--0-(x28)--x-x-x-x-----------------|

CHORUS

F|-----------------------------------|
C|-----------------------------------|
G|--3-(x16)--7-(x16)-----------------|
D|-----------------------------------|

F|-----------------------------------|
C|-----------------------------------|
G|--3-(x16)--7-(x8)--5-(x8)----------|
D|-----------------------------------|

F|-----------------------------------|
C|-----------------------------------|
G|--3-(x16)--5-(x16)-----------------|
D|-----------------------------------|

F|-----------------------------------|
C|-----------------------------------|
G|----------7~---------------7~------|
D|--0~--------------0~---------------|

REPEAT VERSE
REPEAT REFRAIN
REPEAT CHORUS

ADLIB

F|---------------------------------------------------------|
C|---------------------------------------------------------|
G|---------------------3-3-3-3----3-0-0----0-0-------------|
D|-0-0-0-0------0-0-------------------------------3-3-3-3--|

BRIDGE

F|---------------------------------------------------------|
C|---------------------------------------------------------|  2x
G|---------------------3-3-3-3----3-0-0----0-0-------------|
D|-0-0-0-0------0-0-------------------------------3-3-3-3--|

CHORUS2

F|-----------------------------------|
C|-----------------------------------|
G|--3-(x16)--7-(x16)-----------------|
D|-----------------------------------|

F|-----------------------------------|
C|-----------------------------------|
G|--3-(x16)--7-(x8)--5-(x4)--2~------|
D|-----------------------------------|

F|-----------------------------------|
C|-----------------------------------|
G|--3-(x16)--5-(x16)-----------------|
D|-----------------------------------|

F|-----------------------------------|
C|-----------------------------------|
G|----------7~---------------7~------|
D|--0~--------------0~---------------|

OUTRO

F|-----------------------------------------------------------------|
C|-----------------------------------------------------------------|    2x
G|-----------------------------3-3-3-3----3-0-0----0-0-------------|
D|-0-0-0-0----0--0-0----0-0-------------------------------3-3-3-3--|

F|----------------|
C|----------------|
G|----------------|
D|-0-0~-----------|

END

Please Rate,... :o
comments
print report bad tab
I want to post or [tab]
guest
You may want to rate the tab now too:
select rating
Please do not post tabs as comments. Select "correction" instead!