Oops, an error
Loading. Please wait.

Come Close Tab

version 1
version 1

Whole song

Interactive

2,712 views 1 this week
2 commentsread comments
1 2 3 4 5
please rate
add to favorites
launch autoscroll
font size
0
reset
how to read this tab
guitar tuner
Autoscroll
slow
fast
+/-
esc
set tempo
stop
Help us to improve Ultimate-Guitar.com Take our survey!
×
Author
Tuning
C G C F A D
-------------------------------------------------------------------------------
                             SONG NAME - Band Name
-------------------------------------------------------------------------------
Tabbed by:kilik629
Email:Kilik638@yahoo.com

Tuning:C G C F A D

|INTRO|

D|---------------------------------------------------------------------------|
A|---------------------------------------------------------------------------|
F|---------------------------------------------------------------------------|
C|---5------------8---7-----3--------5----------8---10----7---3---------12---|
G|---5------------8---7-----3--------5----------8---10----7---3---------12---|
C|---5------------8---7-----3--------5----------8---10----7---3---------12---|

   (x15)        (x3) (x3)  (x15)   (x15)      (x3) (x3)  (x3)

|VERSE|

Remind yourself
That they are the ones who will hold you still.
My thoughts exploding in thousands of pieces (thousands of pieces)
It looks so beautiful when
I know its not love Cuz!


D|-----------------------------------------------------------------------------|
A|-----------------------------------------------------------------------------|
F|-----------------------------------------------------------------------------|
C|---5---10---11---8-----------------------------------------------------------|
G|---5---10---11---8-----------------------------------------------------------|
C|---5---10---11---8-----------------------------------------------------------|

   (x8) (x8) (x8) (x8)---Play Twice

|PRE-Chorus|

I've been trying! (As we are waiting)
I've been trying
To let you know! So

D|---------------------------------------------------------------------------|
A|---------------------------------------------------------------------------|
F|---------------------------------------------------------------------------|
C|---1---5-5-5-8-8-8-5-5-5-8-8-7-7-7---1---5-5-5-8-8-8-5-5-5-8-8-8-10--------|
G|---1---------------------------------1-------------------------------------|
C|---1---------------------------------1-------------------------------------|
   (x12)                             (x12)

|CHORUS|

COME CLOSE
This is who we are
COME ON
You can show yourself! So
COME CLOSE
This is who we are
COME ON
You can be yourself! Again!

D|-----------------------------------------------------------------------------|
A|-----------------------------------------------------------------------------|
F|-----------------------------------------------------------------------------|
C|---5---8---3-3-3h5-----8---10---7----12------------------5-------------------|
G|---5---8---3-3-3h5-----8---10---7----12------------------5-------------------|
C|---5---8---3-3-3h5-----8---10---7----12------------------5-------------------|
  (x10)(x10)      (x10) (x3)(x3) (x4)--Play Twice-- End on ^(x10---------------|

(Intro again)

D|---------------------------------------------------------------------------|
A|---------------------------------------------------------------------------|
F|---------------------------------------------------------------------------|
C|---5------------8---7-----3--------5----------8---10----7---3---------12---|
G|---5------------8---7-----3--------5----------8---10----7---3---------12---|
C|---5------------8---7-----3--------5----------8---10----7---3---------12---|

   (x15)        (x3) (x3)  (x15)   (x15)      (x3) (x3)  (x3)

|VERSE TWO|

When you notice yourself
As something more than just
A reflection
You'll see (You'll see)
It's not me (It's not me)
I  guess im tryin to say
I know its not love but...

D|-----------------------------------------------------------------------------|
A|-----------------------------------------------------------------------------|
F|-----------------------------------------------------------------------------|
C|---5---10---11---8-----------------------------------------------------------|
G|---5---10---11---8-----------------------------------------------------------|
C|---5---10---11---8-----------------------------------------------------------|

   (x8) (x8) (x8) (x8)---Play Twice


|PRE-Chorus|

I've been trying! (As we are waiting)
I've been trying
To let you know! So

D|---------------------------------------------------------------------------|
A|---------------------------------------------------------------------------|
F|---------------------------------------------------------------------------|
C|---1---5-5-5-8-8-8-5-5-5-8-8-7-7-7---1---5-5-5-8-8-8-5-5-5-8-8-8-10--------|
G|---1---------------------------------1-------------------------------------|
C|---1---------------------------------1-------------------------------------|
   (x12)                             (x12)

|CHORUS|

COME CLOSE
This is who we are
COME ON
You can show yourself! So
COME CLOSE
This is who we are
COME ON
You can be yourself! Again!

D|-----------------------------------------------------------------------------|
A|-----------------------------------------------------------------------------|
F|-----------------------------------------------------------------------------|
C|---5---8---3-3-3h5-----8---10---7----12------------------5-------------------|
G|---5---8---3-3-3h5-----8---10---7----12------------------5-------------------|
C|---5---8---3-3-3h5-----8---10---7----12------------------5-------------------|
  (x10)(x10)      (x10) (x3)(x3) (x4)--Play Twice-- End on ^(x10---------------|

|BRIDGE|
Ohh Ohhhh
Ohh Ohhhh
Ohh Ohhhh
Ohhh...


D|---------------------------------------------------------------------------|
A|---------------------------------------------------------------------------|
F|---------------------------------------------------------------------------|
C|---5---8---10---13---15----------------------------------------------------|
G|---5---8---10---13---15----------------------------------------------------|
C|---5---8---10---13---15----------------------------------------------------|
  (x12)(x12)(x12)(x6) (x6)

NOW!
YOU'VE FOUND LOVE
IT'S SHINING THROUGH!

D|---------------------------------------------------------------------------|
A|---------------------------------------------------------------------------|
F|---------------------------------------------------------------------------|
C|---5---8---10---13---15----------------------------------------------------|
G|---5---8---10---13---15----------------------------------------------------|
C|---5---8---10---13---15----------------------------------------------------|
  (x12)(x12)(x12)(x6) (x6)


|CHORUS|

COME CLOSE
This is who we are
COME ON
You can show yourself! So
COME CLOSE
This is who we are
COME ON
You can be yourself! Again!

D|-----------------------------------------------------------------------------|
A|-----------------------------------------------------------------------------|
F|-----------------------------------------------------------------------------|
C|---5---8---3-3-3h5-----8---10---7----12------------------5-------------------|
G|---5---8---3-3-3h5-----8---10---7----12------------------5-------------------|
C|---5---8---3-3-3h5-----8---10---7----12------------------5-------------------|
  (x10)(x10)      (x10) (x3)(x3) (x4)--Play Twice-- End on ^(x10---------------|


|OUTRO|

COME CLOSE
And I will carry on.
COME CLOSE
In my arms...

D|---------------------------------------------------------------------------|
A|---------------------------------------------------------------------------|
F|---------------------------------------------------------------------------|
C|---5---8---3-----5---8---3------------1------------------------------------|
G|---5---8---3-----5---8---3------------1------------------------------------|
C|---5---8---3-----5---8---3------------1------------------------------------|
           (x3)           (x3)
That should be it for the Rhythm part of the song... I know how to play the Lead part 
I'll try putting it up eventually but until then enjoy this one. Leave a comment if you 
anything is wrong or just for the sake of leaving one for me.

|h- Hammer on

Special thanks to Saosin for making a very kickass song ^.^


==============================================================================
Suggest correction
Give kudos to tab author, rate the tab!
1 2 3 4 5
comments
print report bad tab
2 comments total.
0 reply
kilik629 58 wrote on November 15 2007, 07:15 am

tonight im gonna correct this cuz now that i look at it... its not really that good... it sounded right at the time butt
that was like... 2 months ago =P ill also be posting lead guitar too

0 reply
smorl7 303 wrote on October 4 2008, 07:03 am

Good tab

guest
You may want to rate the tab now too:
select rating
Please do not post tabs as comments. Select "correction" instead!