Oops, an error
Loading. Please wait.

Follow And Feel Bass Tab

version 2
version 2

Whole song

Interactive

274 views 1 this week
no commentswrite comment
1 2 3 4 5
x 3
add to favorites
launch autoscroll
font size
0
reset
guitar tuner
Autoscroll
slow
fast
+/-
esc
set tempo
stop
Help us to improve Ultimate-Guitar.com Take our survey!
×
Author
Difficulty
Tuning
novice
D G C F A D
Follow And Feel
Saosin
Saosin

Tabbed by Lec Segundo

Tuning: Whole Step Down (D G C F)

Legend:

~ - Let Ring
/ - Slide

___________________________________________________________________________

INTRO

F|-----------------------|
C|-----------------------|
G|-----------------------|
D|-0-0-0-0-12-12-12-12---|

INTERLUDE

F|-------------------------------------------------------------|
C|-------------------------------------------------------------|
G|-7-(x16)--3-(x16)--7-(x16)--3-3-3-3-3-3-3-3/5-5-5-5-5-5-5-5--|
D|-------------------------------------------------------------|

VERSE

F|-----------------------|
C|-----------------------|      2x
G|-7-(x32)--5-(x32)------|
D|-----------------------|

REFRAIN

F|---------------|
C|---------------|
G|-2-(x32)-------|
D|---------------|

CHORUS

F|------------------------------|
C|------------------------------|
G|------------------------------|
D|-0-(x16)--3-(x16)---8-(x32)---|

F|------------------------------|
C|------------------------------|
G|-7-(x16)--5-(x32)---3-(x32)---|
G|------------------------------|

REPEAT INTERLUDE
REPEAT VERSE
REPEAT REFRAIN
REPEAT CHORUS

BRIDGE

F|-------------------------------------|
C|-------------------------------------|   2x
G|-7~------5~------3~------------------|
D|-------------------------------------|

BRIDGE2

F|-------------------------------|
C|-------------------------------|
G|-7-(x16)--5-(x16)---3-(x32)----|
G|-------------------------------|

F|------------------------------------|
C|------------------------------------|
G|-7-(x16)--5-(x16)---3-(x24)--3-2----|
G|---------------------------------3--|

REPEAT CHORUS

OUTRO

F|--------------|
C|--------------|
G|--------------|
D|-0-0-0~-------|

Please Rate!,... :o
Suggest correction
Give kudos to tab author, rate the tab!
1 2 3 4 5
comments
print report bad tab
guest
You may want to rate the tab now too:
select rating
Wanna post a correction for this tab? Suggest correction