Oops, an error
Loading. Please wait.

I Can Tell Chords

version 1
version 1

Acoustic

Whole song

Interactive

21,927 views 9 this week
3 commentsread comments
1 2 3 4 5
excellent!
x 4
add to favorites
launch autoscroll
font size
0
reset
transpose
0
reset
simplify chords
display chords
guitar tuner
Tab Pro tools
  • play this tab
  • loop segment
  • change instrument
  • show fretboard
  • metronome
×
Best way to learn
"I Can Tell"
Autoscroll
slow
fast
+/-
esc
set tempo
stop
Capo
2nd fret
I Can Tell lyrics
Capo 2nd fret or no capo, which ever you like.
***note*** timing may be a bit out when corrosponding to the chords and lyrics


|------0------0------0------0------3------1------3------|
|------1------3------1------3------1------1------3------|
|------2------2------0------0------0------2------0------| x 2
|------2------2------2------2------2------3------0------|
|------0------2------3------3------3------0------2------|
|------x------x------x------x------x------x------3------|
       AM            C                   Fmaj7   G5

Verse 1

We try, but Avalon is always beside me
AM                   C
And I’m falling apart, where is my home?
Fmaj7                G5
A riot grows in his eyes opened up
AM                   C
I once believed that I would set you in line
Fmaj7                G5

Pre Chorus

If only I had the strength then maybe you could believe in something else

|x-------x----------x------------x------------|
|x-------x----------x------------x------------|
|2-------4----------2------------4------------|
|3-------5----------3------------5------------|
|3-------5----------3------------5------------|
|1-------3----------1------------3------------|

Chorus

If you keep asking me I’ll melt away in the summer air
AM                                 C
It won't hurt half as much and I’ll beg for you to stop it now
Fmaj7                              G5
If you keep asking me I’ll melt away in the summer air
AM                                 C
It won't hurt half as much and I’ll beg for you just tell me something
Fmaj7                              G5

Verse 2

Through and through, the alpha waves and power cables everywhere
AM                                  C                                    
Exercising self-control         
Fmaj7           G5    
The child calls, and she lies open up
AM                  C
I once believed if only I was thinking at all
Fmaj7               G5

 
Pre Chorus

If only I had the strength then maybe you could believe in something else

|x-------x----------x------------x------------|
|x-------x----------x------------x------------|
|2-------4----------2------------4------------|
|3-------5----------3------------5------------|
|3-------5----------3------------5------------|
|1-------3----------1------------3------------|

Chorus

If you keep asking me I’ll melt away in the summer air
AM                                 C
It won't hurt half as much and I’ll beg for you to stop it now
Fmaj7                              G5
If you keep asking me I’ll melt away in the summer air
AM                                 C
It won't hurt half as much and I’ll beg for you just tell me something
Fmaj7                              G5                                     
Interlude

|------0------0------0------0------3------1------3------|
|------1------3------1------3------1------1------3------|
|------2------2------0------0------0------2------0------|   x 2
|------2------2------2------2------2------3------0------|
|------0------2------3------3------3------0------2------|
|------x------x------x------x------x------x------3------|

If only I had the strength then maybe you could believe in something else

|x-------x----------x------------x------------|
|x-------x----------x------------x------------|
|2-------4----------2------------4------------|
|3-------5----------3------------5------------|
|3-------5----------3------------5------------|
|1-------3----------1------------3------------|


If you keep asking me I’ll melt away in the summer air
AM                                 C
It won't hurt half as much and I’ll beg for you to stop it now
Fmaj7                              G5
If you keep asking me I’ll melt away in the summer air
AM                                 C
It won't hurt half as much and I’ll beg for you just tell me something
Fmaj7                              G5

any questions email me
bass_master009@hotmail.com
comments
print report bad tab
3 comments total.
0 reply
l0stw0lf wrote on November 4 2007, 01:11 am

nice chord!! but the lyrics is kinda off don't ya think? xD

0 reply
killerzombie163 wrote on April 24 2009, 02:28 am

|------0------0--3---0------0------3--0---1------3------|
|------1------3--1---1------3------1--1---1------3------|
|------2------2------0------0------0--2---2------0------| x 2
|------2------2--2---2------2------2--2---3------0------|
|------0------2--3---3------3------3--0---0------2------|
|------x------x--x---x------x------x------x------3------|

it sounds more fitting to me iono. there seemed to have been missing bits when i tried to play along with the acoustic

0 reply
killerzombie163 wrote on April 25 2009, 04:32 pm

|------0------0--3---0------0------3--0---1---0---3------|
|------1------3--1---1------3------1--1---1---1---3------|
|------2------0------0------0------0--2---2---2---0------| x 2
|------2------2--2---2------2------2--2---3---2---0------|
|------0------2--3---3------3------3--0---0---0---2------|
|------x------x--x---x------x------x------x-------3------|

minor adjustments. the 022230 sounded funky with the G string. and i filled the gap at the end with 002210

I want to post or [tab]
guest
You may want to rate the tab now too:
select rating
Please do not post tabs as comments. Select "correction" instead!