Oops, an error
Loading. Please wait.

I Can Tell Tab

version 1
version 1

Solo

Interactive

22,128 views 9 this week
2 commentsread comments
1 2 3 4 5
accurate
x 5
add to favorites
launch autoscroll
font size
0
reset
how to read this tab
guitar tuner
Tab Pro tools
  • play this tab
  • loop segment
  • change instrument
  • show fretboard
  • metronome
Autoscroll
slow
fast
+/-
esc
set tempo
stop
Saosin is from the United States of America and their website is www.saosin.com

Artist: Saosin
Song: I Can Tell
Album: Unreleased 
Tabbed by Mark McGinn

I am almost absolutely sure this tab is right.

Intro Gtr. 1 
E---------------------------------------------------
B---------------------------------------------------
G-9-------7-------12-------9-------7-------12-------
D-x-(8x)--x-(4x)--x--(4x)--x-(8x)--x-(4x)--x---(4x)-
A-7-------5-------10-------7-------5-------10-------
D---------------------------------------------------

E-----------------------------------------
B-----------------------------------------
G-9-------10-------9-------7-------5------
D-x-(4x)--x--(8x)--x-(4x)--x-(8x)--x-(8x)-
A-7-------8--------7-------5-------3------
D-----------------------------------------

Intro Gtr. 2 
E------------------------------------------------
B------------------------------------------------
G------------------------------------9/7777/55/7-
D-7--------10--------3--------5------x/xxxx/xx/x-
A-7-(16x)--10-(16x)--3-(16x)--5-(8x)-7/5555/33/5-
D-7--------10--------3--------5------------------

E----------------------------------------------------
B----------------------------------------------------
G----------------------------------------------------
D-7--------10--------3--------5----------------------
A-7-(16x)--10-(16x)--3-(16x)--5-(8x)-3---2-3-5-3-2-3-
D-7--------10--------3--------5--------5-------------
                                     . . . . . . . .
Verse Gtr. 1 
E------------------------------------
B------------------------------------
G-5-(16)--0-(16x)--5-(8x)-5/7777/555-
D------------------------------------
A------------------------------------
D------------------------------------

E--------------------
B-7-(8x)--5/77-7/5-0-
D--------------------
A--------------------
D--------------------

E------------------------------------------
B------------------------------------------
G-5-(16x)--0-(16x)--5(16x)--0-(8x)--7-(8x)-
D------------------------------------------
A------------------------------------------
D------------------------------------------

Verse Gtr. 2 
E---------------------------------
B---------------------------------
G-0-4-5---------------------------
D-------0-2-3-0-3-5-0-2-3-0-2-3-0-
A---------------------------------
D---------------------------------

Pre-Chorus Gtr. 1 and Gtr. 2 
E---------------------------------
B---------------------------------
G-0-4-5---------------------------
D-------0-2-3-0-3-5-0-2-3-0-2-3-0-
A---------------------------------
D---------------------------------

Here is a guitar fill that takes you into the chorus
E---------------
B---------------
G---------------
D-5555-5555-5---
A-5555-5555-5---
D-5555-5555-5---

Chorus Gtr. 1 
E---------------------------------------------------
B---------------------------------------------------
G-9-------7-------12-------9-------7-------12-------
D-x-(8x)--x-(4x)--x--(4x)--x-(8x)--x-(4x)--x---(4x)-
A-7-------5-------10-------7-------5-------10-------
D---------------------------------------------------

E-----------------------------------------
B-----------------------------------------
G-9-------10-------9-------7-------5------
D-x-(4x)--x--(8x)--x-(4x)--x-(8x)--x-(8x)-
A-7-------8--------7-------5-------3------
D-----------------------------------------

Chorus Gtr. 2 (00:00-00:21)
E------------------------------------------------
B------------------------------------------------
G------------------------------------9/7777/55/7-
D-7--------10--------3--------5------x/xxxx/xx/x-
A-7-(16x)--10-(16x)--3-(16x)--5-(8x)-7/5555/33/5-
D-7--------10--------3--------5------------------

E----------------------------------------------------
B----------------------------------------------------
G----------------------------------------------------
D-7--------10--------3--------5----------------------
A-7-(16x)--10-(16x)--3-(16x)--5-(8x)-3---2-3-5-3-2-3-
D-7--------10--------3--------5--------5-------------
                                     . . . . . . . .

Interlude Gtr. 1
E-----------------
B-----5---8-------
G-4-5---5---5-4-5-
D-----------------
A-----------------
D-----------------

Here is a fill that takes guitar 1 into pre-chorus
E-------
B-----8-
G-4-5---
D-------
A-------
D-------

Interlude Gtr. 2
E-------------------
B-------------------
G-5-(16x)--4-(16x)--
D-------------------
A-------------------
D-------------------

Outro Gtr. 1

E----------------------------       x
B----------------------------       x 
G----------------------------       x
D-10--------5--------8-------       10
A-10-(32x)--5-(16x)--8-(16x)-       10
D-10--------5--------8-------end on 10

Outro Gtr. 2
E----------------------------       x
B----------------------------       x
G-12--------7--------10------       12
D-x--(32x)--x-(16x)--x--(16x)       x
A-10--------5--------8-------       10
D----------------------------end on x


Structure

Intro
Verse
Pre-Chorus
Verse2Chorus Fill
Chorus
Verse
Pre-Chorus
Verse2Chorus Fill
Chorus
Interlude
Pre-Chorus
Verse2Chorus Fill
Chorus
Outro
comments
print report bad tab
2 comments total.
0 reply
UrbanSombrero wrote on October 3 2006, 03:59 pm

Best song ever. I just wish I could understand the lyrics.

+1 reply
allstar21369 wrote on May 31 2009, 02:53 pm

This is how I play the Verse/Prechorus
and it sounds dead on.

Standard Tuning


Verse-
e|-------------------------------------|
B|-1-1-1-1-1-1-1-1--1-1-1-1-1-1-1-1----|
G|5-5-5-5-5-5-5-5--4-4-4-4-4-4-4-4-----|
D|-------------------------------------|
A|-------------------------------------|
E|-------------------------------------|

e|-------------------------------------|
B|-1-1-1-1-1/3-3-3-3--1-1-1-1-1-1-1-1--|
G|5-5-5-5-5---5-5-5--4-4-4-4-4-4-4-4---|
D|-------------------------------------|
A|-------------------------------------|
E|-------------------------------------|

Prechorus-
e|------3p0-------------------3p0---|
B|----------------------------------|
G|--4/5-----2h4h5---4/5---4/5-------| x8
D|3---------------3-----3-----------|
A|----------------------------------|
E|----------------------------------|

I want to post or [tab]
guest
You may want to rate the tab now too:
select rating
Please do not post tabs as comments. Select "correction" instead!