Oops, an error
Loading. Please wait.

I Can Tell Tab

version 4
version 4

Interactive

1,597 views 1 this week
1 commentread comment
1 2 3 4 5
please rate
add to favorites
launch autoscroll
font size
0
reset
how to read this tab
guitar tuner
Autoscroll
slow
fast
+/-
esc
set tempo
stop
Help us to improve Ultimate-Guitar.com Take our survey!
×
Author
Difficulty
intermediate
I can Tell There Was An Accident Here Earlier (New Version) of Saosin By Necan


Tuning: All strings dropped two steps lower

Slide=/
Mute=x

Intro/Chorus

Guitar 1
D ----------------------------------------------|
A ---------------------->7->8->7----------------|
F >11->9->14->11->9->14--x--x—x->9-11/>9-7-6-7--|
C >9-->9->9-->0-->0->0-->5->5->5->7-x-/>x-x-x-x-|
G >9-->9->9-->0-->0->0-->5->5->5->7-9-/>7-5-4-5-|
C >9-->9->9-->0-->0->0-->5->5->5->7-------------|

D ---------------------------------------------------|
A ---------------------->7->8->7---------------------|
F >11->9->14->11->9->14--x--x—x->9-------------------|
C >9-->9->9-->0-->0->0-->5->5->5->7----------7-------|
G >9-->9->9-->0-->0->0-->5->5->5->7—5-7-4-5---5-4-5--|
C >9-->9->9-->0-->0->0-->5->5->5->7------------------|

Guitar2
D ----
A ->3-
F ----
C ----
G ----
C ----


Verse

Guitar 1
    We     try . . . . .
D ------------------|
A ------------------|
F –-----------------|
C --9--7--5---------|
G --9--7--5---------|
C --9--7--5---------|

Guitar 1
      Orion    calls    and     his   eyes . . .
D ---------------------------------------|
A -------10-7-0-----------------10-7-----|
F –0-6-7--------6-7-0-4-6-0-6-7----------|
C ---------------------------------------|
G ---------------------------------------|
C ---------------------------------------|

Guitar 2
D ----------------|
A -->3->2---------|
F –---------------| Do this until pre-chorus
C ----------------|
G ----------------|
C ----------------|

Pre-Chorus

Guitar 1
    If     only     I  . . . .
D ---------------------------------------|
A -------10-7-0-------10-7–------10-7----|
F –0-6-7--------6-7-0--–---0-6-7---------|
C ---------------------------------------|
G ---------------------------------------|
C ---------------------------------------|

Guitar 2
D ----------------------------------|
A ----------------------------------|
F ---4-7-6-4-6---7-6------4-7-6-----|
C -5-----------7------5-7------->7--|
G ------------------------------>7--|
C ------------------------------>7--|


Chorus
In Chorus do the same as intro

Verse

Pre-chorus

Chorus


Guitar 1
 If    you   keep
D --------------- [---------------------------] [-------------------]
A --------------- [---------------------------] [----------15-14----]
F –------11----14 [----------------11----14---] [-------14-------14-]repeat
C -11-12----12--- [-12-11-12-11-12----12----12] [–11-12-------------]8 times
G --------------- [---------------------------] [-------------------]
C --------------- [---------------------------] [-------------------]
                          Repeat this part 7 times

Guitar 2
D ---------------|
A -->3->2--------|
F –--------------|
C ---------------|
G ---------------|
C ---------------|

Pre-chorus

Chorus


Guitar 1
   You     smile
D -------------------------------|
A -------------------------------|
F –------------------------------|
C ->0-->8-->10-->0-->8->10--0----|
G ->0-->8-->10-->0-->8->10--0----|
C ->0-->8-->10-->0-->8->10--0----|

Guitar 2

D --------------------------|
A --------------------------|
F -->11->10->9-->11->10->9--|
C --------------------------|
G -->9-->8-->7-->9-->8-->7--|
C --------------------------|
Suggest correction
What's this?
You can suggest a correction to this tab. Community and Mods will review your correction and vote to approve or reject it.
comments
We did not receive enough feedback on this tab! Please rate:
print report bad tab
1 2 3 4 5
1 comment total.
0 reply
->-Petrucci-<- 13 wrote on December 21 2006, 10:28 am

this is shit!!!

guest
You may want to rate the tab now too:
select rating
Please do not post tabs as comments. Select "correction" instead!