Oops, an error
Loading. Please wait.

I Can Tell Tab

version 6
version 6

Interactive

8,024 views 1 this week
2 commentsread comments
1 2 3 4 5
please rate
add to favorites
launch autoscroll
font size
0
reset
how to read this tab
guitar tuner
Autoscroll
slow
fast
+/-
esc
set tempo
stop
Help us to improve Ultimate-Guitar.com Take our survey!
×
Author
Difficulty
intermediate
guitar fill
/--------------------------/
/--------------------------/
/--------------------------/
/--------------5-----------/
/--3--5--2--3-----3--2--3--/
/--------------------------/


verse
guitar 1
/--------------------------------------------------/
/--------------------------------------------------/
/--------------------------------------------------/
/--7-----------------------------------------------/
/--7-----------------------------------------------/
/--7-----------------------------------------------/
guitar 2
/--------------------------------------------------/
/--------------------------------------------------/
/--5--5--5--5--5--5--5--5--5--5--5--5--5--5--5--5--/
/--------------------------------------------------/
/--------------------------------------------------/
/--------------------------------------------------/

guitar 1
/--------------------------------------------------/
/--------------------------------------------------/
/--------------------------------------------------/
/--5-----------------------------------------------/
/--5-----------------------------------------------/
/--5-----------------------------------------------/
guitar 2
/--------------------------------------------------/
/--------------------------------------------------/
/--4--4--4--4--4--4--4--4--4--4--4--4--4--4--4--4--/
/--------------------------------------------------/
/--------------------------------------------------/
/--------------------------------------------------/

guitar 1
/--------------------------------------------------/
/--6-----------------------------------------------/
/--5-----------------------------------------------/
/--3-----------------------------------------------/
/--3-----------------------------------------------/
/--3-----------------------------------------------/
guitar 2
/--------------------------------------------------/
/--------------------------------------------------/
/--5--5--5--5--5--5--5--5h77--7--7--7--7--7--4-s5--/
/--------------------------------------------------/
/--------------------------------------------------/
/--------------------------------------------------/

guitar 1
/--------------------------------------------------/
/--------------------------------------------------/
/--------------------------------------------------/
/--5-----------------------------------------------/
/--5-----------------------------------------------/
/--5-----------------------------------------------/
guitar 2
/--------------------------------------------------/
/--------------------------------------------------/
/-s4--4--4--4--4--4--4--4--4--4--4--4--4--4--4--4--/
/--------------------------------------------------/
/--------------------------------------------------/
/--------------------------------------------------/


2nd part of verse
guitar 1
/--------------------------------------------------/
/--------------------------------------------------/
/----------12--9----------------------------12--9--/
/-------10-----------9-10--------9-----9-10--------/
/--8-10-----------8--------8-10----10--------------/
/--------------------------------------------------/
guitar 2
/--------------------------------------------------/
/--5--5--5--5--5--5--5--5--5--5--5--5--5--5--5--5--/
/--------------------------------------------------/
/--------------------------------------------------/
/--------------------------------------------------/
/--------------------------------------------------/

guitar 1
/--------------------------------------------------/
/--------------------------------------------------/
/----------12--9----------------------------12--9--/
/-------10-----------9-10--------9-----9-10--------/
/--8-10-----------8--------8-10----10--------------/
/--------------------------------------------------/
guitar 2
/--------------------------------------------------/
/--4--4--4--4--4--4--4--4--4--4--4--4--4--4--4--4--/
/--------------------------------------------------/
/--------------------------------------------------/
/--------------------------------------------------/
/--------------------------------------------------/

guitar 1
/--------------------------------------------------/
/--------------------------------------------------/
/----------12--9----------------------------12--9--/
/-------10-----------9-10--------9-----9-10--------/
/--8-10-----------8--------8-10----10--------------/
/--------------------------------------------------/
guitar 2
/--------------------------------------------------/
/--5--5--5--5--5--5--5--5h77--7--7--7--7--7--7--7--/
/--------------------------------------------------/
/--------------------------------------------------/
/--------------------------------------------------/
/--------------------------------------------------/

guitar 1
/--------------------------------------------------/
/--------------------------------------------------/
/----------12--9----------------------------12--9--/
/-------10-----------9-10--------9-----9-10--------/
/--8-10-----------8--------8-10----10--------------/
/--------------------------------------------------/
guitar 2
/--------------------------------------------------/
/--4--4--4--4--4--4--4--4--5--5--5--5--5h77--7--7--/
/--------------------------------------------------/
/--------------------------------------------------/
/--------------------------------------------------/
/--------------------------------------------------/

Prechorus
guitar 1
/--------------------------------------------------/
/--------------------------------------------------/
/----------12--9-------------12--9----------12-9---/
/-------10-----------9-10--------------9-10--------/  (4 times)
/--8-10-----------8--------8--------8--------------/
/--------------------------------------------------/
guitar 2
/--------------------------------------------------/
/--------------------------------------------------/
/--------2--5--4--------2-----5--4--------2--5--4--/
/-----5-----------3--5--------------3--5-----------/  (3 times)
/--3-----------------------3-----------------------/
/--------------------------------------------------/
guitar2(4th time)
/--------------------------------------------------/
/--------------------------------------------------/
/--------------------------------------------------/
/--5--5--5--5--------5--5--5--5--------5-----------/
/--5--5--5--5--------5--5--5--5--------5-----------/
/--5--5--5--5--------5--5--5--5--------5-----------/


Suggest correction
Give kudos to tab author, rate the tab!
1 2 3 4 5
comments
print report bad tab
2 comments total.
0 reply
allstar21369 652 wrote on May 31 2009, 02:50 pm

This is how I play the Verse/Prechorus
and it sounds dead on.

Standard Tuning


Verse-
e|-------------------------------------|
B|-1-1-1-1-1-1-1-1--1-1-1-1-1-1-1-1----|
G|5-5-5-5-5-5-5-5--4-4-4-4-4-4-4-4-----|
D|-------------------------------------|
A|-------------------------------------|
E|-------------------------------------|

e|-------------------------------------|
B|-1-1-1-1-1/3-3-3-3--1-1-1-1-1-1-1-1--|
G|5-5-5-5-5---5-5-5--4-4-4-4-4-4-4-4---|
D|-------------------------------------|
A|-------------------------------------|
E|-------------------------------------|

Prechorus-
e|------3p0-------------------3p0---|
B|----------------------------------|
G|--4/5-----2h4h5---4/5---4/5-------| x8
D|3---------------3-----3-----------|
A|----------------------------------|
E|----------------------------------|

0 reply
Dauh 72 wrote on February 14 2010, 02:33 pm

is tuning drop C?

guest
You may want to rate the tab now too:
select rating
Please do not post tabs as comments. Select "correction" instead!