Oops, an error
Loading. Please wait.

I Never Wanted To Tab

version 1
version 1

Solo

Whole song

Interactive

7,947 views 3 this week
1 commentread comment
1 2 3 4 5
accurate
x 2
add to favorites
launch autoscroll
font size
0
reset
how to read this tab
guitar tuner
Tab Pro tools
  • play this tab
  • loop segment
  • change instrument
  • show fretboard
  • metronome
Autoscroll
slow
fast
+/-
esc
set tempo
stop
Contributor
I Never Wanted To – Saosin
Drop C (C G C F A D)

Verse

Guitar 1
|-0--1--0--1--0--1--0-|
|-3--3--3--3--3--3--1-|
|-2--3--2--3--2--3--0-|
|-0--3--0--3--0--3--2-|
|-0--1--0--1--0--1--3-|
|-0-----0-----0-------|

PreChorus x2

Guitar 1
|-11111111-00000000-000000000000-0000-|
|-33333333-11111111-333333333333-1111-|
|-33333333-00000000-222222222222-0000-|
|-33333333-22222222-000000000000-2222-|
|-11111111-33333333-000000000000-3333-|
|-------------------000000000000------|

Chorus x2

Guitar 1
|--------------------------------------------------------------------|
|-------13----------13----------13----------13----------13--151515---|
|---------14----------14----------14----------14----------14---------|
|-121415------121415------121415------121415------121415-------------|
|--------------------------------------------------------------------|
|--------------------------------------------------------------------|

Guitar 2
|--------------------------------------------------------------------|
|--------------------------------------------------------------------|
|-3-3-3-3-3-3-3-3-5-5-5-5-5-5-5-5-7-7-7-7-7-7-7-7-7-7-7-7-7-5-5-5----|
|-3-3-3-3-3-3-3-3-5-5-5-5-5-5-5-5-7-7-7-7-7-7-7-7-7-7-7-7-7-5-5-5--0-|
|-1-1-1-1-1-1-1-1-3-3-3-3-3-3-3-3-5-5-5-5-5-5-5-5-5-5-5-5-5-3-3-3--0-|
|------------------------------------------------------------------0-|

Verse
PreChorus x2
Chorus x4 (stop at first C5 on fourth time)
Bridge/Breakdown

Guitar 2
|-----------------------------------------------------------|
|-----------------------------------------------------------|
|-----------------333333333333-----------------333333333355-|
|-0000000-0000000-333333333333-0000000-0000000-333333333355-|
|-0000000-0000000-111111111111-0000000-0000000-111111111133-|
|-0000000-0000000--------------0000000-0000000--------------|

Chorus (Post Breakdown)

Guitar 1
|---------------------------------------------------|
|------------------------1------------1-----1-3-3-3-|
|-3333333355555555---------3------------3-3---------|
|-3333333355555555-0-2-3--------0-2-3---------------|
|-1111111133333333----------------------------------|
|---------------------------------------------------|

Guitar 2
|---------------------------------------------------|
|---------------------------------------------------|
|-3-------------------------------------------------|
|-3----------------0-0-0-0-0-0-0-0-0-0-0-0-0-0-0-0--|
|-1----------------0-0-0-0-0-0-0-0-0-0-0-0-0-0-0-0--|
|------------------0-0-0-0-0-0-0-0-0-0-0-0-0-0-0-0--|

Chorus x3 (stop at first C5 on third time)

Outro/Breakdown

Guitar 2
|-----------------|
|-----------------|
|-----------------|
|-0000000-0000000-|
|-0000000-0000000-|
|-0000000-0000000-|
PM           ....

That's all i got but there are more leads that are hard to hear. you can leave a comment 
you figure out any thing that i did wrong. my email is partycrasher12@gmail.com
comments
We did not receive enough feedback on this tab! Please rate:
print report bad tab
1 2 3 4 5
1 comment total.
0 reply
Sam Rulez D00d wrote on October 16 2013, 03:40 pm

Check out version 2, it's more accurate.

I want to post or [tab]
guest
You may want to rate the tab now too:
select rating
Please do not post tabs as comments. Select "correction" instead!