Oops, an error
Loading. Please wait.

Its So Simple Bass Tab

version 1
version 1

Whole song

Interactive

561 views 1 this week
no commentswrite comment
1 2 3 4 5
excellent!
x 4
add to favorites
launch autoscroll
font size
0
reset
guitar tuner
Autoscroll
slow
fast
+/-
esc
set tempo
stop
Help us to improve Ultimate-Guitar.com Take our survey!
×
Contributor
Difficulty
Tuning
novice
D G C F A D
It's So Simple
Saosin
Saosin

Tabbed by Lec Segundo

Tuning: Whole Step Down (DGCF)

Legend:

~ - Let Ring
x - Ghost Note
\ - Slide Up

Note:

Chris Sorenson plays it with a pick,...

_________________________________________________________________________

INTRO

F|---------------------------------------------------------------------|
C|---------------------------------------------------------------------|
G|---------------------------------------------------------------------|
D|-44-44-444-444-4447-77-777-777-x-2-4-44-444-444-4440-00-000-22-222-4-|

F|----------------------------------------------------------------------|
C|----------------------------------------------------------------------|
G|----------------------------------------------------------------------|
D|-44-44-444-444-4447-77-777-777-x-2-4-44-444-444-4440-00-000-22-222-4~-|

VERSE

F|-------------------------------------------|
C|-------------------------------------------|
G|-------------------7-77-777-777-777-77-----|
D|-44-44-444-444-444-------------------------|

F|-------------------------------------------|
C|-------------------------------------------|
G|-------------------9-99-999-7-77-777-------|
D|-44-44-444-444-444-------------------------|

F|-------------------------------------------|
C|-------------------------------------------|
G|-------------------2-22-222-222-222-22-----|
D|-44-44-444-444-444-------------------------|

F|-------------------------------------------|
C|-------------------------------------------|
G|-------------------2-22-222-4-44-444-------|
D|-44-44-444-444-444-------------------------|

REFRAIN

F|------------------------------------------------|
C|------------------------------------------------|
G|------------------------------------------------|
D|-0--0-0-0-0-0-0-0-0-0---4--4-4-4-4-4-4-4-4-4-4--|

F|---------------------------------------------------|
C|---------------------------------------------------|
G|---------------------------------------------------|
D|-0--0-0-0-0-0-0-0-0-0---4--4-4-4-4-4--2--2-2-2-2-2-|

CHORUS

F|---------------------------------------------------------------------|
C|---------------------------------------------------------------------|
G|---------------------------------------------------------------------|
D|-44-44-444-444-4447-77-777-777-x-2-4-44-444-444-4440-00-000-22-222-4-|

F|----------------------------------------------------------------------|
C|----------------------------------------------------------------------|
G|----------------------------------------------------------------------|
D|-44-44-444-444-4447-77-777-777-x-2-4-44-444-444-4440-00-000-22-222-4~-|

VERSE

F|-------------------------------------------|
C|-------------------------------------------|
G|-------------------7-77-777-777-777-77-----|
D|-44-44-444-444-444-------------------------|

F|-------------------------------------------|
C|-------------------------------------------|
G|-------------------9-99-999-7-77-777-------|
D|-44-44-444-444-444-------------------------|

F|-------------------------------------------|
C|-------------------------------------------|
G|-------------------2-22-222-222-222-22-----|
D|-44-44-444-444-444-------------------------|

F|-------------------------------------------|
C|-------------------------------------------|
G|-------------------2-22-222-4-44-444-------|
D|-44-44-444-444-444-------------------------|

REFRAIN

F|------------------------------------------------|
C|------------------------------------------------|
G|------------------------------------------------|
D|-0--0-0-0-0-0-0-0-0-0---4--4-4-4-4-4-4-4-4-4-4--|

F|---------------------------------------------------|
C|---------------------------------------------------|
G|---------------------------------------------------|
D|-0--0-0-0-0-0-0-0-0-0---4--4-4-4-4-4--2--2-2-2-2-2-|

CHORUS

F|---------------------------------------------------------------------|
C|---------------------------------------------------------------------|
G|---------------------------------------------------------------------|
D|-44-44-444-444-4447-77-777-777-x-2-4-44-444-444-4440-00-000-22-222-4-|

F|----------------------------------------------------------------------|
C|----------------------------------------------------------------------|
G|----------------------------------------------------------------------|
D|-44-44-444-444-4447-77-777-777-x-2-4-44-444-444-4440-00-000-22-222-4~-|

BRIDGE

F|--------------------------------------------------|
C|--------------------------------------------------|
G|--------------------------------------------------|
D|-0--0-0-0-0-0-0-0-0-0---2--2-2-2-2-2-2-2-2-2-2-2--|

F|--------------------------------------------------|
C|--------------------------------------------------|
G|--------------------------------------------------|
D|-4--4-4-4-4-4-4-4-4-4-4-4-4-4-4-4-4-4-4-4-4-4-4---|

F|--------------------------------------------------|
C|--------------------------------------------------|
G|--------------------------------------------------|
D|-0--0-0-0-0-0-0-0-0-0---2--2-2-2-2-2-2-2-2-2-2-2--|

F|--------------------------------------------------|
C|--------------------------------------------------|
G|--------------------------------------------------|
D|-4--4-4-4-4-4-4-4-4-4-4-4-4-4-4-4-4-4-4-4-4-4-4---|

F|--------------------------------------------------|
C|--------------------------------------------------|
G|--------------------------------------------------|
D|-0~-----------------------------------------------|

CHORUS (slightly decrease tempo)

F|---------------------------------------------------------------------|
C|---------------------------------------------------------------------|
G|---------------------------------------------------------------------|
D|-44-44-444-444-4447-77-777-777-x-2-4-44-444-444-4440-00-000-22-222-4-|

F|----------------------------------------------------------------------|
C|----------------------------------------------------------------------|
G|----------------------------------------------------------------------|
D|-44-44-444-444-4447-77-777-777-x-2-4-44-444-444-4440-00-000-22-222-4~-|

OUTRO

F|-----|
C|-----|
G|-----|
D|-4\--|

END

Please Rate!,... :o
comments
print report bad tab
I want to post or [tab]
guest
You may want to rate the tab now too:
select rating
Please do not post tabs as comments. Select "correction" instead!