Oops, an error
Loading. Please wait.

Lost Symphonies tab

version 1
version 1

Whole song

Interactive

by Saosin
2,177 views 1 this week
no commentswrite comment
1 2 3 4 5
2 more votes to show rating
add to favorites
×
Save as Personal and add changes to this tab that will be seen only by you. Learn more ›
×
You can save this tab as Personal to edit and correct it or add notes. All changes will be seen only by you. Learn more »
launch autoscroll
font size
0
reset
how to read this tab
guitar tuner
edit
Autoscroll
slow
fast
+/-
esc
set tempo
stop
Author
Difficulty
 _______________________
|                       | SONG:      LOST SYMPHONIES
|       SAOSIN          | ALBUM:     TRANSLATING THE NAME EP
|_______________________| TABBED BY: ibnzplayer0 (label_Sk8er1@yahoo.com)
 ______________________
| . = PALM MUTE        |
| ~ = LET NOTE RING    |
| / = SLIDE UP         |
| V = NATURAL HARMONIC |
| + = TIED NOTE        |
| b = BEND NOTE        |
|<> = FADE IN FADE OUT |
|h/p= HAMMERON/PULLOFF |
| * = HARMONIC         |
|______________________|
TUNING : D G C F A D
2 GUITAR
Q = 158
__________________________________________________________________________

[INTRO]
|----|
|----|
|-4<-|
|-4<-|
|-2<-|
|----|


|------------------|----------------------------------------|
|------------------|----------------------------------------|
|-7-7-7777-777-777-|--------------------------4------7~~~~~-|
|-5-5-5555-555-555-|-----2h4-----4h5-----4h5---4--5---5p4h5-|
|-3-3-3333-333-333-|----------------------------------------|
|------------------|--0-------0--------0--------------------|x2
|                     .       .        .
|
|------------------|-14-15-14-15-14-15-14-15-14-15-14-15-14-15-14-15-|
|------------------|-------------------------------------------------|
|-5-5-5555-555-555-|-------------------------------------------------|
|-5-5-5555-555-555-|-------------------------------------------------|
|-3-3-3333-333-333-|-------------------------------------------------|
|------------------|-------------------------------------------------|x2


[PRE-VERSE]
|------------12-10---------------|
|---10-12-10-------12-10---10-12-|--15* 
|-9----------------------9-------|
|--------------------------------|
|--------------------------------|
|--------------------------------|
* Second Guitar plays this note halfway through the pre-verse

[VERSE]
||------------12-10---------------|------------12-10---------------|
||---10-12-10-------12-10---10-12-|---10-12-10-------12-10---10-12-| 
||-9----------------------9-------|-9----------------------9-------|
||--------------------------------|--------------------------------|
||--------------------------------|--------------------------------|
||--------------------------------|--------------------------------|
||                                                                 |
||--------------------------------|--------------------------------|
||-17--17--17--15------------12---|-12--12--12--8------------------|
||-------------------14--14-------|------------------12--11--9-----|
||--------------------------------|--------------------------------|
||--------------------------------|--------------------------------|
||--------------------------------|--------------------------------|


|------------12-10---------------|------------12-10---------------||
|---10-12-10-------12-10---10-12-|---10-12-10-------12-10---10-12-||
|-9----------------------9-------|-9----------------------9-------||
|--------------------------------|--------------------------------||
|--------------------------------|--------------------------------||
|--------------------------------|--------------------------------||x3
|                                                                 ||
|--------------------------------|------------------------7-------||
|--------------------------------|--------------------------------||
|-9-11-11-11h12p11-11--11--11--9-|-7--9--9h12p11--------------5-7-||
|--------------------------------|--------------------------------||
|--------------------------------|------------------5-5-5---5-----||
|--------------------------------|--------------------------------||x3
                                                  NH* * * * * * *


[CHORUS]
|-----------------|-----------------|-----------------|-----------------|
|-----------------|-----------------|-----------------|-----------------|
|-----------------|-----------------|-7~~~~~~~~~~~~~7-|-7~~~~~~~~~~~~~--|
|-2~~~~~~~~~~~~~~~|-2~~~~~~~~~~~~~~~|-5~~~~~~~~~~~~~5-|-7~~~~~~~~~~~~~--|
|-2~~~~~~~~~~~~22-|-2~~~~~~~~~~~~~~~|-3~~~~~~~~~~~~~3-|-5~~~~~~~~~~~~~5\|
|-0~~~~~~~~~~~~00-|-0~~~~~~~~~~~~~~~|-----------------|-----------------|
|              ..
|
|-----------------|-----------------|-----------------|-----------------|
|-----------------|-----------------|-----------------|-------------5---|
|---5---5---------|---5---5---------|---5---5---------|---5---5---5---5-|
|-----4---5-------|-----4---5-------|-----4---5-------|-----4---4-------|
|-----------5---5-|-----------5---5-|-----------5---5-|-----------------|
|-5-----------5---|-5-----------5---|-5-----------5---|-5---------------|
NH* * * * * * * *   * * * * * * * *   * * * * * * * *   * * * * * * * *


|-----------------|-----------------|-----------------|-----------------|
|-----------------|-----------------|-----------------|-----------------|
|-----------------|-----------------|-7~~~~77~~~~~~~~~|-7~~~~77~~~~~~~~~|
|-2~~~~~~~~~~~~~~~|-----2~~~~~~~~~~~|-5~~~~55~~~~~~~~~|-7~~~~77~~~~~~~~~|
|-2~~~~~~~~~~~~22-|-2-2-2~~~~~~~~~~~|-3~~~~33~~~~~~~~~|-5~~~~55~~~~~~~~~|
|-0~~~~~~~~~~~~00-|-0-0-0~~~~~~~~~~~|-----------------|-----------------|
|              ..   . .
|
|-----------------|-----------------|-----------------|-----------------|
|-----------------|-----------------|-----------------|-------------5---|
|---5---5---------|---5---5---------|---5---5---------|---5---5---5---5-|
|-----4---5-------|-----4---5-------|-----4---5-------|-----4---4-------|
|-----------5---5-|-----------5---5-|-----------5---5-|-----------------|
|-5-----------5---|-5-----------5---|-5-----------5---|-5---------------|
NH* * * * * * * *   * * * * * * * *   * * * * * * * *   * * * * * * * *



[PRE-VERSE]
|------------12-10---------------|
|---10-12-10-------12-10---10-12-|--15* 
|-9----------------------9-------|
|--------------------------------|
|--------------------------------|
|--------------------------------|
* Second Guitar plays this note halfway through the pre-verse

[VERSE]
||------------12-10---------------|------------12-10---------------|
||---10-12-10-------12-10---10-12-|---10-12-10-------12-10---10-12-| 
||-9----------------------9-------|-9----------------------9-------|
||--------------------------------|--------------------------------|
||--------------------------------|--------------------------------|
||--------------------------------|--------------------------------|
||                                                                 |
||--------------------------------|--------------------------------|
||-17--17--17--15------------12---|-12--12--12--8------------------|
||-------------------14--14-------|------------------12--11--9-----|
||--------------------------------|--------------------------------|
||--------------------------------|--------------------------------|
||--------------------------------|--------------------------------|


|------------12-10---------------|------------12-10---------------||
|---10-12-10-------12-10---10-12-|---10-12-10-------12-10---10-12-||
|-9----------------------9-------|-9----------------------9-------||
|--------------------------------|--------------------------------||
|--------------------------------|--------------------------------||
|--------------------------------|--------------------------------||x3
|                                                                 ||
|--------------------------------|------------------------7-------||
|--------------------------------|--------------------------------||
|-9-11-11-11h12p11-11--11--11--9-|-7--9--9h12p11--------------5-7-||
|--------------------------------|--------------------------------||
|--------------------------------|------------------5-5-5---5-----||
|--------------------------------|--------------------------------||x3
                                                  NH* * * * * * *


[CHORUS]
|-----------------|-----------------|-----------------|-----------------|
|-----------------|-----------------|-----------------|-----------------|
|-----------------|-----------------|-7~~~~~~~~~~~~~7-|-7~~~~~~~~~~~~~--|
|-2~~~~~~~~~~~~~~~|-2~~~~~~~~~~~~~~~|-5~~~~~~~~~~~~~5-|-7~~~~~~~~~~~~~--|
|-2~~~~~~~~~~~~22-|-2~~~~~~~~~~~~~~~|-3~~~~~~~~~~~~~3-|-5~~~~~~~~~~~~~5\|
|-0~~~~~~~~~~~~00-|-0~~~~~~~~~~~~~~~|-----------------|-----------------|
|              ..
|
|-----------------|-----------------|-----------------|-----------------|
|-----------------|-----------------|-----------------|-------------5---|
|---5---5---------|---5---5---------|---5---5---------|---5---5---5---5-|
|-----4---5-------|-----4---5-------|-----4---5-------|-----4---4-------|
|-----------5---5-|-----------5---5-|-----------5---5-|-----------------|
|-5-----------5---|-5-----------5---|-5-----------5---|-5---------------|
NH* * * * * * * *   * * * * * * * *   * * * * * * * *   * * * * * * * *


|-----------------|-----------------|-----------------|-----------------|
|-----------------|-----------------|-----------------|-----------------|
|-----------------|-----------------|-7~~~~77~~~~~~~~~|-7~~~~77~~~~~~~~~|
|-2~~~~~~~~~~~~~~~|-----2~~~~~~~~~~~|-5~~~~55~~~~~~~~~|-7~~~~77~~~~~~~~~|
|-2~~~~~~~~~~~~22-|-2-2-2~~~~~~~~~~~|-3~~~~33~~~~~~~~~|-5~~~~55~~~~~~~~~|
|-0~~~~~~~~~~~~00-|-0-0-0~~~~~~~~~~~|-----------------|-----------------|
|              ..   . .
|
|-----------------|-----------------|-----------------|-----------------|
|-----------------|-----------------|-----------------|-------------5---|
|---5---5---------|---5---5---------|---5---5---------|---5---5---5---5-|
|-----4---5-------|-----4---5-------|-----4---5-------|-----4---4-------|
|-----------5---5-|-----------5---5-|-----------5---5-|-----------------|
|-5-----------5---|-5-----------5---|-5-----------5---|-5---------------|
NH* * * * * * * *   * * * * * * * *   * * * * * * * *   * * * * * * * *

[BRIDGE]
|---------------------------------|
|-----------------------------3---|
|---------------------------------|
|---4h5---4h5---4h5---4h5-4h5---5-|
|---------------------------------|
|-0-----0-----0-----0-------------|x4
| .     .     .     .
|
|---------------------------------|
|---------------------------------|
|---------------------------------|
|-2~~~~~~~~~~~~~~~~~~~~~~~~~~~~~~~|
|-2~~~~~~~~~~~~~~~~~~~~~~~~~~~~~~~|
|-0~~~~~~~~~~~~~~~~~~~~~~~~~~~~~~~|x4


[OUTRO]
||---------------------------------|---------------------------------|
||-----------------------------3---|-----------------------------3---|
||---------------------------------|---------------------------------|
||---4h5---4h5---4h5---4h5-4h5---5-|---4h5---4h5---4h5---4h5-4h5---5-|
||---------------------------------|---------------------------------|
||-0-----0-----0-----0-------------|-0-----0-----0-----0-------------|
|| .     .     .     .               .     .     .     .
|| 
||---------------------------------|---------------------------------|
||---------------------------------|---------------------------------|
||-----------------------------7---|-----------------------------7---|
||---7h9---7h9---7h9---7h9-7h9---9-|---7h9---7h9---7h9---7h9-7h9---9-|
||-7-----7-----7-----7-------------|-7-----7-----7-----7-------------|
||---------------------------------|---------------------------------|
   .     .     .     .               .     .     .     .
 

|---------------------------------|---------------------------------||
|-----------------------------3---|---------------------------------||
|---------------------------------|---------------------------5-4---||
|---4h5---4h5---4h5---4h5-4h5---5-|---4h5---4h5---4h5---4h5-5-----5-||
|---------------------------------|---------------------------------||
|-0-----0-----0-----0-------------|-0-----0-----0-----0-------------||x2
| .     .     .     .               .     .     .     .     * * * *
| 
|---------------------------------|---------------------------------||
|---------------------------------|---------------------------------||
|-----------------------------7---|-----------------------------7---||
|---7h9---7h9---7h9---7h9-7h9---9-|---7h9---7h9---7h9---7h9-7h9---9-||
|-7-----7-----7-----7-------------|-7-----7-----7-----7-------------||
|---------------------------------|---------------------------------||x2
  .     .     .     .               .     .     .     .



|---------------------------------|---------------------------------|
|-----------------------------3---|-----------------------------3---|
|---------------------------------|---------------------------------|
|---4h5---4h5---4h5---4h5-4h5---5-|---4h5---4h5---4h5---4h5-4h5---5-|
|---------------------------------|---------------------------------|
|-0-----0-----0-----0-------------|-0-----0-----0-----0-------------|
| .     .     .     .               .     .     .     .
| 
|---------------------------------|---------------------------------|
|---------------------------------|---------------------------------|
|-----------------------------7---|-----------------------------7---|
|---7h9---7h9---7h9---7h9-7h9---9-|---7h9---7h9---7h9---7h9-7h9---9-|
|-7-----7-----7-----7-------------|-7-----7-----7-----7-------------|
|---------------------------------|---------------------------------|
  .     .     .     .               .     .     .     .


|---------------------------------|---------------------------------|
|-----------------------------3---|---------------------------------|
|---------------------------------|---------------------------------|
|---4h5---4h5---4h5---4h5-4h5---5-|--/5---4---2---0-------0--/2~~~~~|
|---------------------------------|-------------------3-------------|
|-0-----0-----0-----0-------------|---------------------------------|
| .     .     .     .               
| 
|---------------------------------|---------------------------------|
|---------------------------------|---------------------------------|
|-----------------------------7---|---------------------------------|
|---7h9---7h9---7h9---7h9-7h9---9-|--/9---7---5---4---5---7--/9~~~~~|
|-7-----7-----7-----7-------------|---------------------------------|
|---------------------------------|---------------------------------|
  .     .     .     .      
Suggest correction
Creating personal tab
Creating personal tab
You can edit any tab online and save it as your Personal.

You can edit, replace or remove any tab part or add personal notes – all changes will be seen only by you.

Personal tabs can be accessed anytime from any device, even offline.
Learn more »
Give kudos to tab author, rate the tab!
1 2 3 4 5
comments
print report bad tab
guest
You may want to rate the tab now too:
select rating
Wanna post a correction for this tab? Suggest correction