Oops, an error
Loading. Please wait.

Lost Symphonies tab

version 4
version 4

Whole song

Interactive

by Saosin
428 views 1 this week
no commentswrite comment
1 2 3 4 5
x 3
add to favorites
×
Save as Personal and add changes to this tab that will be seen only by you. Learn more ›
×
You can save this tab as Personal to edit and correct it or add notes. All changes will be seen only by you. Learn more »
launch autoscroll
font size
0
reset
how to read this tab
guitar tuner
edit
Autoscroll
slow
fast
+/-
esc
set tempo
stop
Lost Symphonies
Saosin
Translating the Name

Tabbed by Lec Segundo

Tuning: Drop C (CGCFAd) 

Legend:

~ - Let Ring
/ - Slide
v - Vibrato
________________________________________________________________

INTRO

Rhythm

d|-----------------------------------------------------------------|
A|-----------------------------------------------------------------|
F|-----------------------------------------------------------------|  2x
C|--12-1212-1212-1212-121212----------------------9----12----------|
G|--10-1010-1010-1010-101010--9-10--9-10--9-10-12---10----10-9-10--|
C|--10-1010-1010-1010-101010---------------------------------------|

Lead

d|----------------------------14-15-14-15-14-15-14-15-14-15-14-15--|
A|-----------------------------------------------------------------|  2x
F|-----------------------------------------------------------------|
C|--12-1212-1212-1212-121212---------------------------------------|
G|--10-1010-1010-1010-101010---------------------------------------|
C|--10-1010-1010-1010-101010---------------------------------------|

INTERLUDE

Rhythm

d|-----------------------------------|
A|-----------------------------------|
F|--IDLE-----------------------------|
C|-----------------------------------|
G|-----------------------------------|
C|-----------------------------------|

Lead

d|----------------10------------------|
A|------12-10--12-----12-10----10-12--|
F|--9-9---------------------12--------|
C|------------------------------------|
G|------------------------------------|
C|------------------------------------|

VERSE

Rhythm

d|-12-12-12-12-10-10------------------------|         \
A|-------------------10-10-12----12-12-8-10-|          \
F|-----------------------------9------------|           \
C|------------------------------------------|            \
G|------------------------------------------|             \
C|------------------------------------------|              \
                                                            >3x
d|------------------------------------10----10-15-10-|     /
A|-8-7---7-7h8h7--8-8-------7h8h7--12----12----------|    /   
F|-----9--------------9-7-9--------------------------|   / 
C|---------------------------------------------------|  /
G|---------------------------------------------------| /
C|---------------------------------------------------|/ 

Lead

d|-------------------10----------------------|
A|------12---10---12-------12---10----10-12--|
F|--9-9----9----9--------9----9----12--------|  12x
C|-------------------------------------------|
G|-------------------------------------------|
C|-------------------------------------------|

CHORUS

Rhythm

d|-------------------------------------------------------------------------|
A|-------------------------------------------------------------------------|
F|-------------------------------------------------------------------------|
C|-2~------x-x-2~------x-x-12-12-12-12-12-12-12-12-14-14-14-14-12-12-12-12-|
G|-2~------x-x-2~------x-x-10-10-10-10-10-10-10-10-12-12-12-12-12-12-12-12-|
C|-2~------x-x-2~------x-x-10-10-10-10-10-10-10-10-12-12-12-12-12-12-12-12-|

d|-----------------------------------------------------------------------------|
A|-----------------------------------------------------------------------------|
F|-----------------------------------------------------------------------------|
C|-2~------x-x-x-x-2~------x-x-12-12-12-12-12-12-12-12-14-14-14-14-12-12-12-12-|
G|-2~------x-x-x-x-2~------x-x-10-10-10-10-10-10-10-10-12-12-12-12-12-12-12-12-|
C|-2~------x-x-x-x-2~------x-x-10-10-10-10-10-10-10-10-12-12-12-12-12-12-12-12-|

Lead

d|--15-14-15--------------|
A|-----------15-----------|
F|--------------14----14--|     3x
C|-----------------14-----|
G|------------------------|
C|------------------------|

d|--15-14-15-14-15-19-15--|
A|------------------------|
F|------------------------|
C|------------------------|
G|------------------------|
C|------------------------|

d|--15-14-15--------------|
A|-----------15-----------|
F|--------------14----14--|     3x
C|-----------------14-----|
G|------------------------|
C|------------------------|

d|--15-14-15-14-15-19-15--|
A|------------------------|
F|------------------------|
C|------------------------|
G|------------------------|
C|------------------------|

REPEAT INTERLUDE
REPEAT VERSE
REPEAT CHORUS

ADLIB

Rhythm

d|--------------------------------------------|
A|--------------------------------------------|
F|--------------------------------------------|
C|-2~------2~------2~--------2-2-2-22-22-2222-|
G|-2~------2~------2~--------2-2-2-22-22-2222-|
C|-2~------2~------2~--------2-2-2-22-22-2222-|

Lead

d|-------------------------------------|
A|-------------------------------------|
F|-------------------------------------|    4x
C|-------------------------------12----|
G|---9-10--9-10--9-10--9-10-9-10----10-|
C|-------------------------------------|

BRIDGE

Rhythm

d|--------------------------------------------------|
A|--------------------------------------------------|
F|--------------------------------------------------|    11x
C|--------------------------------------------12----|
G|---(0)-9-10-(0)-9-10-(0)-9-10-(0)-9-10-9-10----10-|
C|--------------------------------------------------|

Lead

d|--------------------------------10---|
A|------7-8---7-8---7-8---7-8-7-8----8-|
F|----9-----9-----9-----9--------------|    3x
C|-------------------------------------|
G|-------------------------------------|
C|-------------------------------------|

d|--------------------------------19----|
A|------7-8---7-8---7-8---7-8-7-8----20-|
F|----9-----9-----9-----9---------------|    
C|--------------------------------------|
G|--------------------------------------|
C|--------------------------------------|

d|----------------------------------------------10----|
A|-------10-12----10-12----10-12----10-12-10-12----12-|
F|----12-------12-------12-------12-------------------|    7x
C|----------------------------------------------------|
G|----------------------------------------------------|
C|----------------------------------------------------|

OUTRO

Rhythm

d|-----------------------------------|
A|-----------------------------------|
F|-----------------------------------|
C|-----------------------------9~----|
G|--9/10v--9v--7v--5v--3v--5v--7~----|
C|-----------------------------------|

Lead

d|-----------------------------------|
A|--10/12v--10v--8v--7v--5v--7v--8v~-|
F|-----------------------------------|
C|-----------------------------------|
G|-----------------------------------|
C|-----------------------------------|

END

Please Rate!,... :o

            
            
Suggest correction
Creating personal tab
Creating personal tab
You can edit any tab online and save it as your Personal.

You can edit, replace or remove any tab part or add personal notes – all changes will be seen only by you.

Personal tabs can be accessed anytime from any device, even offline.
Learn more »
Give kudos to tab author, rate the tab!
1 2 3 4 5
comments
print report bad tab
guest
You may want to rate the tab now too:
select rating
Wanna post a correction for this tab? Suggest correction