Oops, an error
Loading. Please wait.

On My Own Bass Tab

version 1
version 1

Whole song

Interactive

1,475 views 3 this week
3 commentsread comments
1 2 3 4 5
please rate
add to favorites
launch autoscroll
font size
0
reset
guitar tuner
Tab Pro tools
  • play this tab
  • loop segment
  • change instrument
  • show fretboard
  • metronome
×
Best way to learn
"On My Own"
Autoscroll
slow
fast
+/-
esc
set tempo
stop
Contributor
Difficulty
Tuning
novice
D A D G B E
-----------------------------------------------------------------------------
			     On My Own - Saosin
-----------------------------------------------------------------------------

Tabbed By : SDbassplayer
e-mail: denny_shane89@yahoo.com

Tuning:Drop-D

Verse
G|------------------------------------------------------------------------|
D|--------------8p6--------------------------------8p6--------------------|
A|------------------------------------------------------------------------|
D|-555555555555-----88888888-33333333-555555555555-----88888888-333333----|

G|------------------------------------------------------------------------|
D|--------------8p6--------------------------------8p6--------------------|
A|------------------------------------------------------------------------|
D|-555555555555-----88888888-33333333-555555555555-----11111111-33333333--|

Pre-chorus
G|-------------------------------|
D|-------------------------------|
A|-------------------------------| X2
D|-55555555-55-11111111-33333333-|

Chorus
G|-------------------------------------------------------------------|
D|-------------------------------------------------------------------|
A|-------------------------------------------------------------------|X2
D|-1111111111111111333333333333333311111111111111118888888333333335~-|

Repeat Verse, Pre-chorus

Chorus
G|-----------------------------------------------------------------|
D|-----------------------------------------------------------------|
A|-----------------------------------------------------------------|X2
D|-111111111111111133333333333333331111111111111111888888833333333-|

Go straight into bridge
G|--------------------------------------------------------------------------|
D|--------------------------------------------------------------------------|
A|--------------------------------------------------------------------------|
D|-33333333333333-555555-55-55-55333333-33-33-33-555555-55-55-55333333--3-33-33|

Breakdown (play close to neck)
G|-------------------------------------------------------|
D|-------------------------------------------------------|
A|-------------------------------------------------------|
D|-55-555-55-555-33-333-33-333-11-111-11-111-11-1111333--|

G|-------------------------------------------------------------------|
D|-------------------------------------------------------------------|
A|---------------5555------------------------------------------------|
D|-55-555-55-555-----88-888-88-8-10101010-11-111-11-111-1-1111111333-|

G|------------------------------------------------------------------|
D|------------------------------------------------------------------|
A|------------------------------------------------------------------|
D|-3/5555555555555553/55555555555555553/555555555555555555555555-1~-|

Last pre-Chorus
G|--------------------------------------------------------------------------|
D|--------------------------------------------------------------------------|
A|-----------------------------------------------------6666666688888888-----|
D|-55555555555555555-1111111133333333-5555555555555555----------------------|

Chorus
G|-----------------------------------------------------------------|
D|-----------------------------------------------------------------|
A|-----------------------------------------------------------------| X2
D|-111111111111111133333333333333331111111111111111888888833333333-|

Outro
G|-------------------------------------------------------|
D|-------------------------------------------------------|
A|-------------------------------------------------------|
D|-55555555-55-55555555-55-55555555-55-55555555--1~-5~~--|


| /  slide up
| \  slide down
| h  hammer-on
| p  pull-off
| ~  vibrato
| +  harmonic
| x  Mute note
===============================================================================
comments
We did not receive enough feedback on this tab! Please rate:
print report bad tab
1 2 3 4 5
3 comments total.
0 reply
SDbassplayer wrote on January 15 2010, 02:33 pm

hey sorry guys a lil typo here
Chorus
G|-----------------------------------------------------|
D|-----------------------------------------------------|
A|-----------------------------------------------------| X2
D|-11111111111111115555555555555551111111111111111888888833333333-|

0 reply
SDbassplayer wrote on January 15 2010, 02:35 pm

Verse
G|------------------------------------------------------------------------|
D|--------------8p5--------------------------------8p65--------------------|
A|------------------------------------------------------------------------|
D|-555555555555-----88888888-33333333-555555555555-----88888888-333333----|

0 reply
SDbassplayer wrote on January 15 2010, 02:37 pm

Verse
G|------------------------------------------------------------------------|
D|--------------8p5--------------------------------8p5--------------------|
A|------------------------------------------------------------------------|
D|-555555555555-----88888888-33333333-555555555555-----88888888-333333----|

dammit lol

I want to post or [tab]
guest
You may want to rate the tab now too:
select rating
Please do not post tabs as comments. Select "correction" instead!