Oops, an error
Loading. Please wait.

Plays Pretty For Baby tab

version 4
version 4

Whole song

Interactive

by Saosin
14,097 views 1 this week
11 commentsread comments
1 2 3 4 5
x 9
add to favorites
×
Save as Personal and add changes to this tab that will be seen only by you. Learn more ›
×
You can save this tab as Personal to edit and correct it or add notes. All changes will be seen only by you. Learn more »
launch autoscroll
font size
0
reset
how to read this tab
guitar tuner
edit
Autoscroll
slow
fast
+/-
esc
set tempo
stop
Difficulty
This is my first tab
Saosin
Plays Pretty For Baby
EADGBE
It Sounds Right But You Tell Me
Enjoi

E:-------------------------------------------------------------------|
B:-------------------------------------------------------------------|
G:--13-13-13-13-13-13-15-13------------------------------------------|
D:--13-13-13-13-13-13-13-13----13-13-13-13-13-13-13-13---------------|
A:--11-11-11-11-11-11-11-11----13-13-13-13-13-13-13-13---------------|
E:-----------------------------11-11-11-11-11-11-11-11---------------|

E:-------------------------------------------------------------------|
B:-------------------------------------------------------------------|
G:---------------------6-6-6-6-6-6-6-6-------------------------------|
D:--8-8-8-8-8-8-8-8----6-6-6-6-6-6-6-6-------------------------------|
A:--8-8-8-8-8-8-8-8----4-4-4-4-4-4-4-4-------------------------------|
E:--6-6-6-6-6-6-6-6--------------------------------------------------|

            
            
Suggest correction
Creating personal tab
Creating personal tab
You can edit any tab online and save it as your Personal.

You can edit, replace or remove any tab part or add personal notes – all changes will be seen only by you.

Personal tabs can be accessed anytime from any device, even offline.
Learn more »
comments
print report bad tab
11 comments total. Showing first comments.
0 reply
bexxxoxo 10 Apr 11, 2007 08:22 AM

this isn't a saosin song--its zolof the rock and roll destroyer

-1 reply
glazeglaze 116 Jul 06, 2007 12:08 PM

ur wrong bexoxoxoxo

-1 reply
stapleking221 10 Sep 04, 2007 04:33 PM

yeah i definately know this is saosin, and if it isnt how would you have found and recognized it?

guest
Wanna post a correction for this tab? Suggest correction