Oops, an error
Loading. Please wait.

Seven Years Acoustic tab

by Saosin
6,422 views 1 this week
1 commentread comment
1 2 3 4 5
x 4
add to favorites
×
Save as Personal and add changes to this tab that will be seen only by you. Learn more ›
×
You can save this tab as Personal to edit and correct it or add notes. All changes will be seen only by you. Learn more »
launch autoscroll
font size
0
reset
how to read this tab
guitar tuner
edit
Autoscroll
slow
fast
+/-
esc
set tempo
stop
Author
Artist: Saosin
Album: Translating the Name
Song: Seven Years Acoustic
Email:alexisonfire066@yahoo.com

~ - let it ring

The chords are repeated throughout the song..all you gonna do is to 
Listen to the song for plucking variations and tempo as well as plucking intensity


ACOUSTIC GUITAR 

Verse
d|---------------------------------------------------------------|
A|---------3--------------3--------------3-------------3---------|
F|------0----0-----0----0---0----0----0----0---0-----0---0---0~--| Repeat As Necessary
C|---0----------0-----0-------0----------------------------------|
G|---------------------------------2---------2----3--------3-----|
C|---------------------------------------------------------------|

Pre-Chorus 
d|---------------------------------------------------------------|
A|---------3--------------3--------------3-------------3---------|
F|------0----0-----0----0---0----0----0----0---0-----0---0---0~--| Repeat As Necessary
C|---0----------0-----0-------0----------------------------------|
G|---------------------------------2---------2----3--------3-----|
C|---------------------------------------------------------------|

Outro
d|-------------------------------------------------------|
A|-----3------------3------------3------------3----------|
F|--------0------------0------------0-----------0--------|
C|-------------------------------------------------------| Repeat As Necessary
G|--3--------3---3--------3---3---------3--3-------3-----|
C|-------------------------------------------------------|

            
            
Suggest correction
Creating personal tab
Creating personal tab
You can edit any tab online and save it as your Personal.

You can edit, replace or remove any tab part or add personal notes – all changes will be seen only by you.

Personal tabs can be accessed anytime from any device, even offline.
Learn more »
comments
print report bad tab
1 comment total.
0 reply
JumpKickDance 10 Jan 26, 2007 11:24 AM

Wrong

guest
You may want to rate the tab now too:
select rating
Wanna post a correction for this tab? Suggest correction