Oops, an error
Loading. Please wait.

Seven Years Bass Tab

version 2
version 2

Whole song

1,727 views 1 this week
no commentswrite comment
1 2 3 4 5
please rate
add to favorites
launch autoscroll
font size
0
reset
guitar tuner
Autoscroll
slow
fast
+/-
esc
set tempo
stop
Help us to improve Ultimate-Guitar.com Take our survey!
×
Author
Difficulty
novice
Saosin- Seven Years
This is my interpretation on the song seven years by Saosin I'm sure its 100% right. Not 
difficult

Intro/Verse
"Taking on..."
G-----------------------------------------|
D-----------------------------------------|
A-5-5-5-5-5-5-5-5-5-5-1-1-1-1-1-1-1-1-1-1-| 3x
D-----------------------------------------|

G-----------------------------------------|
D-----------------------------------------|
A-5-5-5-5-5-5-5-5-5-5-1-1-1-1-1-3-3-3-3-3-|
D-----------------------------------------|

Pre-chorus
"I would find a way without.."
G-------------------------------------------|
D-------------------------------------------|
A---------------3h5-----111-111111111111111-|
D-0------0---0------0-----------------------|

G-------------------------------------------|
D-------------------------------------------|
A---------------3h5-----111-111111111111111-|
D-0------0---0------0-----------------------|

Chorus
"That mistake was gold!.."
G---------------------------------------------------------|
D---------------------------------------------------------|
A-------------------33-3-3333-33-3-3333--0000000--1111111-|
D-00-0-000-00-0-000---------------------------------------|

G--------------------------------------------------------|
D--------------------------------------------------------|
A-------------------33-3-3333-33-3-3333--00-0-00-11-1-11-|
D-00-0-000-00-0-000--------------------------------------|


Verse

Pre-Chorus

Chorus

No bass

Then...

Outro
"Don't treat me, I'm to blame.."
G--------------------------|
D--------------------------|
A--------------11-11-33-33-| 5x
D-00-00--00-00-------------|

ends with
G---
D---
A-5-
D---
Suggest correction
Give kudos to tab author, rate the tab!
1 2 3 4 5
comments
print report bad tab
guest
You may want to rate the tab now too:
select rating
Please do not post tabs as comments. Select "correction" instead!