Oops, an error
Loading. Please wait.

Seven Years tab

by Saosin
48,908 views 6 this week
11 commentsread comments
1 2 3 4 5
x 13
add to favorites
×
Save as Personal and add changes to this tab that will be seen only by you. Learn more ›
×
You can save this tab as Personal to edit and correct it or add notes. All changes will be seen only by you. Learn more »
launch autoscroll
font size
0
reset
how to read this tab
guitar tuner
edit
Autoscroll
slow
fast
+/-
esc
set tempo
stop
Author
----------------------------------------------------------------------------
        Seven Years - Saosin
----------------------------------------------------------------------------
Tabbed by: Andrew Penner
Email: penner_rocks@hotmail.com

Tuning: D Standard
(note: strumming is not exact strumming, listen to song to find out how to play it)

===========================================================================

[INTRO/VERSE]

"Taking on Seven Years..."
GUITAR 1
D|---------------------------------------------------------------------|
A|---------------------------------------------------------------------|
F|---------------------------------------------------------------------| X3
C|-------12---------------12---------------12---------------12---------|
G|----10----10---10----10----10---10----10----10---10----10----10---10-|
D|--0----------0-----0----------0-----8----------8-----8----------8----|
then
D|---------------------------------------------------------------------|
A|---------------------------------------------------------------------|
F|---------------------------------------------------------------------|
C|-------12---------------12---------------12---------------12---------| x1
G|----10----10---10----10----10---10----10----10---10----10----10----10|
D|--0----------0-----0----------0-----8----------8----10----------10---|


GUITAR 2
D|-------10--------------10--------------10--------------10------------|
A|-----8----8----8-----8----8----8-----8----8----8-----8----8----8-----|
F|--11--------11----11--------11----11--------11----11--------11-------| X4
C|---------------------------------------------------------------------|
G|---------------------------------------------------------------------|
D|---------------------------------------------------------------------|
===========================================================================

[CHORUS PART 1]

"I WOULD FIND A WAY WITHOUT..."
GUITAR 1
D|--------------------------------------------------------------------|
A|--------------------------------------------------------------------|
F|----5*-----------------5*----2h4-4-4-----555555555555555555555555---|
C|-2-----5*-4h5-5-5---2-----5*-------------555555555555555555555555---|
G|-2------------------2--------------------333333333333333333333333---|
D|-0------------------0-----------------------------------------------|

GUITAR 2
D|--------------------------------------------------------------------|
A|--------------------------------------------------------------------|
F|----5*-----------------5*----------------555555555555555555555555---|
C|-2-----5*-4h5-5-5---2-----5*-4h5-5-5-----555555555555555555555555---|
G|-2------------------2--------------------333333333333333333333333---|
D|-0------------------0-----------------------------------------------|

==========================================================================


[CHORUS PART 2]

"I WOULD FIND A WAY WITHOUT YOU..."
GUITAR 1
D|---------------------------------------------------------------------|
A|---------------------------------------------------------------------|
F|---------7-------------------7-------------------------7-5-4---------|
C|-2-4-5-4---5---------2-4-5-4---5-------2-4-5-4-5-7-5-7-------5/0-----|
G|---------------------------------------------------------------------|
D|---------------------------------------------------------------------|

GUITAR 2
D|-------------------------------------------------------------------------|
A|-------------------------------------------------------------------------|
F|----5*-----------------5*-----------------------------------12-10-9------|
C|-2-----5*-4h5-5-5---2-----5*-4h5-5-5---7-9-10-9-10-12-10-12---------10/0-|
G|-2------------------2----------------------------------------------------|
D|-0------------------0----------------------------------------------------|

==========================================================================


[CHORUS PART 3]

"THAT MISTAKE WAS GOLD..."
GUITAR 1
D|---------------------------------------------------------------------|
A|---------------------------------------------------------------------|
D|-------------777777777777-44444444-55555555--------------------------|
C|-22222222222-777777777777-44444444-55555555--------------------------|
G|-22222222222-555555555555-22222222-33333333--------------------------|
D|-00000000000---------------------------------------------------------|

D|------------------------------------------------------------------------|
A|------------------------------------------------------------------------|
D|-------------777777777777-----------------------------------------------|
C|-22222222222-777777777777-(---------12--------)---(--------12--------)--|
G|-22222222222-555555555555-(----10------10---10)x2-(----10-----10---10)x2|
D|-00000000000--------------(7-7----7-------7---)---(8-8----8------8---)--|
                          PM............................................
GUITAR 2
D|---------------------------------------------------------------------|
A|--------------5*----------------------5*-----------------------------|
F|-5*--12*--7*-----5*--7*--5*--12*--7*-----5*--7*----------------------| X12
C|---------------------------------------------------------------------|
G|---------------------------------------------------------------------|
D|---------------------------------------------------------------------|

- Do Everything Once More Before The Bridge
=============================================================================


[BRIDGE]

GUITAR 1
D|------------------------------------------------------------------|
A|------------------------------------------------------------------|
F|------------------------------------------------------------------|
C|-2-2-2-2--2-2-2-2--2-2-2-2--2-2-2-2-------------------------------| x1
G|-2-2-2-2--2-2-2-2--2-2-2-2--2-2-2-2-------------------------------|
D|-0-0-0-0--0-0-0-0--0-0-0-0--0-0-0-0-------------------------------|

then

GUITAR 1
"Don't Treat Me, I'm To Blame..."
D|------------------------------------------------------------------|
A|------------------------------------------------------------------|
F|-------------------5-5-5-5--7-7-7-7-------------------------------|
C|-2-2-2-2--2-2-2-2--5-5-5-5--7-7-7-7-------------------------------| x1
G|-2-2-2-2--2-2-2-2--3-3-3-3--5-5-5-5-------------------------------|
D|-0-0-0-0--0-0-0-0-------------------------------------------------|

GUITAR 2
D|------------------------------------------------------------------|
A|--------------5*----------------------5*--------------------------|
F|-5*--12*--7*-----5*--7*--5*--12*--7*-----5*--7*-------------------| X10
C|------------------------------------------------------------------|
G|------------------------------------------------------------------|
D|------------------------------------------------------------------|


********************************************************************

| /  slide up
| \  slide down
| h  hammer-on
| p  pull-off
| ~  vibrato
| *  harmonic
| x  Mute note
| .  Palm Mute

********************************************************************

            
            
Suggest correction
Creating personal tab
Creating personal tab
You can edit any tab online and save it as your Personal.

You can edit, replace or remove any tab part or add personal notes – all changes will be seen only by you.

Personal tabs can be accessed anytime from any device, even offline.
Learn more »
comments
print report bad tab
11 comments total. Showing first comments.
0 reply
maxm 10 Jun 19, 2007 09:28 AM

The tab is the best i have found but there are a few mistakes in the chorus, nice work

0 reply
jo3myster 247 Jan 01, 2008 02:00 PM

i like this version better than the other 5 star version because this is d standard and the other is c and my ibanez is
in d and its got the floyd rose locking system so i d have to retune it in a very long process this one sonds better any
way so 5*s

0 reply
PRS_4_ever 30 Jun 17, 2008 03:12 PM

Good tab... but there are a few mistakes in the harmonics part of the song. Nice work anyway

guest
You may want to rate the tab now too:
select rating
Wanna post a correction for this tab? Suggest correction