Oops, an error
Loading. Please wait.

Seven Years tab

by Saosin
10,289 views 6 this week
no commentswrite comment
1 2 3 4 5
x 8
add to favorites
×
Save as Personal and add changes to this tab that will be seen only by you. Learn more ›
×
You can save this tab as Personal to edit and correct it or add notes. All changes will be seen only by you. Learn more »
launch autoscroll
font size
0
reset
how to read this tab
guitar tuner
edit
Autoscroll
slow
fast
+/-
esc
set tempo
stop
Seven Years tab by Saosin

Tabbed by: Czerald G. Guevarra - biboy_0916@yahoo.com
Tuning	 : Drop D
Legend	 : / - slide
	   h - hammer on
	   p - pull off
	   • - palm mute
	   b - bend
	   x - mute
         [1] - guitar #1
         [2] - guitar #2
 
VERSE 1: (Clean)
[1] Taking on seven years...
e||-----8-----------8-----------8-----------8-------|
B||-5-6---6-5-6-5-6---6-5-6-5-6---6-5-6-5-6---6-5-6-|
G||-------------------------------------------------| (4x)
D||-------------------------------------------------|
A||-------------------------------------------------|
D||-------------------------------------------------|

[2]
e||-----------------------------------------------------|
B||-----------------------------------------------------|
G||-----5-----------5-----------5-----------5-----------| {4x}
D||---3---3---3---3---3---3---3---3---3---3---3---3-----|
A||-------------------------1-------1---3-------3-------|
D||-0-------0---0-------0-------------------------------|
 
REFRAIN: (Distortion)
[1] I would find a way without!	Tell him his eyes see too clear...
e||-------------------------------------------------------------------------------|
B||-------------------------------------------------------------------------------|
G||-------------------------------------------------------------------------------|
D||-0x-------0x-5/7-5-10-10101010101010101010101010101010101010101010101010101010-|
A||-0x-7/8-7-0x-7/8-7-----8-8-8-8-8-8-8-8-8-8-8-8-8-8-8-8-8-8-8-8-8-8-8-8-8-8-8-8-|
D||-0x-------0x-----------8-8-8-8-8-8-8-8-8-8-8-8-8-8-8-8-8-8-8-8-8-8-8-8-8-8-8-8-|

[2]
e||-17p13-17p13-17p13-17p13--17p13-17p13-17p13-17p13----------------------------------------------------------|
B||-----------------------------------------------------------------------------------------------------------|
G||-----------------------------------------------------------------------------------------------------------|
D||--------------------------------------------------10101010101010101010101010101010101010101010101010101010-|
A||--------------------------------------------------8-8-8-8-8-8-8-8-8-8-8-8-8-8-8-8-8-8-8-8-8-8-8-8-8-8-8-8--|
D||--------------------------------------------------8-8-8-8-8-8-8-8-8-8-8-8-8-8-8-8-8-8-8-8-8-8-8-8-8-8-8-8--|

[1] I would find a way without you!
e||-------------------------------------------------|
B||-------------------------------------------------|
G||-------------------------------------------------|
D||-0x---------10-------------10--------------------|
A||-0x-7-7/8-7----7-5-7-7/8-7----7------------------|
D||-0x----------------------------------------------|

[2]
e||-17p13-17p13-17p13-17p13--17p13-17p13-17p13-17p13-|
B||--------------------------------------------------|
G||--------------------------------------------------|
D||--------------------------------------------------|
A||--------------------------------------------------|
D||--------------------------------------------------|

[1] Tell him his eyes see too clear.
e||-------------------------------------------------|
B||-------------------------------------------------|
G||-------------------------------------------------|
D||-------------------10-8-7------------------------|
A||-5-7-8-7-8-10-8-10--------8\\\-------------------|
D||-------------------------------------------------|

[2]
e||-------------------------------------------------|
B||-------------------------------------------------|
G||-------------------------------------------------|
D||-3-5-7-5-7-8-10-8-7------------------------------|
A||--------------------8\\\-------------------------|
D||-------------------------------------------------|
 


CHORUS:
[1] That mistake was gold!...	   Without you is something that I could...
e||-------------------------------------------------------------------------------------------------|
B||-------------------------------------------------------------------------------------------------|
G||-------------------------------------------------------------------------------------------------|
D||-0000000000000000000000000000-101010101010101010101010101010101010101010101010101010101010101010-|
A||-0000000000000000000000000000-101010101010101010101010101010101010101010101010101010101010101010-|
D||-0000000000000000000000000000-101010101010101010101010101010101010101010101010101010101010101010-|

  ...never do...
e||-------------------------------------------------|
B||-------------------------------------------------|
G||-------------------------------------------------|
D||-7777777777777x-8888888888888x-------------------|
A||-7777777777777x-8888888888888x-------------------|
D||-7777777777777x-8888888888888x-------------------|

[1] That was why! Staple the eyes and seven dates for me to sell machines and...
e||-------------------------------------------------------------------------------------------------|
B||-------------------------------------------------------------------------------------------------|
G||-------------------------------------------------------------------------------------------------|
D||-0000000000000000000000000000-101010101010101010101010101010101010101010101010101010101010101010-|
A||-0000000000000000000000000000-101010101010101010101010101010101010101010101010101010101010101010-|
D||-0000000000000000000000000000-101010101010101010101010101010101010101010101010101010101010101010-|

  ...tear on...
e||-----------------------------------------------------------------|
B||-----------------------------------------------------------------|
G||-----------------------------------------------------------------|
D||---------10---10---------10---10---------10---10---------10---10-|
A||------88----8---------88----8---------88----8---------88----8----|
D||-•7•7------------•7•7------------•8•8------------•8•8------------|

[2] (Play this in the whole chorus part)
e||-13----17-13-12-13----17-13-12-13----17-13-12-13----17-13-12-13-|
B||----13-------------13-------------13-------------13-------------|
G||----------------------------------------------------------------|
D||----------------------------------------------------------------|
A||----------------------------------------------------------------|
D||----------------------------------------------------------------|
 
VERSE 2:
(Repeat [1] & [2] 3x only)

(Repeat refrain & chorus)

BRIDGE:
[1]
e||-------------------------------------------------|
B||-------------------------------------------------|
G||-------------------------------------------------|
D||-0000x-0000x-0000x-0000x-------------------------|
A||-0000x-0000x-0000x-0000x-------------------------|
D||-------------------------------------------------|

[1] Sorry, I'm sorry, I'm sorry
e||-13----17-13-12-13----17-13-12-13----17-13-12-13----17-13-12-13-|
B||----13-------------13-------------13-------------13-------------|
G||----------------------------------------------------------------| (5x)
D||----------------------------------------------------------------|
A||----------------------------------------------------------------|
D||----------------------------------------------------------------|

[2]
e||-------------------------------------------------|
B||-------------------------------------------------|
G||-------------------------------------------------|
D||-0000x-0000x-8888x-10101010x---------------------|
A||-0000x-0000x-8888x-10101010x-(Repeat 5x)-•3------|
D||-0000x-0000x-8888x-10101010x-------------•5------|

END

            
            
Suggest correction
Creating personal tab
Creating personal tab
You can edit any tab online and save it as your Personal.

You can edit, replace or remove any tab part or add personal notes – all changes will be seen only by you.

Personal tabs can be accessed anytime from any device, even offline.
Learn more »
comments
print report bad tab
guest
You may want to rate the tab now too:
select rating
Wanna post a correction for this tab? Suggest correction