Oops, an error
Loading. Please wait.

Sleepers Bass Tab

version 1
version 1

Whole song

3,034 views 1 this week
3 commentsread comments
1 2 3 4 5
please rate
add to favorites
launch autoscroll
font size
0
reset
guitar tuner
Tab Pro tools
  • play this tab
  • loop segment
  • change instrument
  • show fretboard
  • metronome
×
Best way to learn
"Sleepers"
Autoscroll
slow
fast
+/-
esc
set tempo
stop
Difficulty
novice
After Guitar intro..

G|----------------------------------------|
D|----------------------------------------|
A|----------------------------------------|
D|-0000000--1010101010--888888888888888---|

G|-----------------------------------|
D|-----------------------------------|
A|--------------------11111111111111-|
D|-0000000--33333333-----------------|

Preverse

G|----------|
D|----------|     x2
A|----------|
D|--0000/12-|

Verse

G|-----------------------------------------------------------------------------|
D|-----------------------------------------------------------------------------|
A|------------------------------------888---------------------------------1010-|
D|--121212121212121212--777777777777-------1010101010--888888888--101010-------|

G|---------------------------------------------------------------|
D|---------------------------------------------------------------|
A|--555555555----------------------------------------------------|
D|-------------77777777777--3333333333--101010101010--8888888888-|

Prechorus

G|-------------------------|
D|-------------------------|  x2
A|----------------7/8-7/8--|
D|--00-0-00-00-0-----------|

Chorus

G|--------------------------------------------|
D|--------------------------------------------|
A|---------------3333333333--1111111111111111-|
D|--00000000000-------------------------------|

G|--------------------------------------------|    x2
D|--------------------------------------------|
A|----------------------------111111111111111-|
D|--00000000000--33333333333------------------|

Postchorus

G|----------|
D|----------|     x2
A|----------|
D|--0000/12-|

Verse

G|----------------------------------------------------------|
D|----------------------------------------------------------|
A|----------------------------------------------------------|
D|--0000000000--777777777777-10101010101010--33333333333333-|

G|-----------------------------------------------------------------------------|
D|-----------------------------------------------------------------------------|
A|--5555555555555-----------------------------------333333333333--111111111111-|
D|-----------------777777777777777--33333333333333-----------------------------|

Prechorus

G|-------------------------|
D|-------------------------|  x2
A|----------------7/8-7/8--|
D|--00-0-00-00-0-----------|

Chorus

G|--------------------------------------------|
D|--------------------------------------------|
A|---------------3333333333--1111111111111111-|
D|--00000000000-------------------------------|

G|--------------------------------------------|            x2
D|--------------------------------------------|
A|----------------------------111111111111111-|
D|--00000000000--33333333333------------------|


Bridge

G|----------------------------------------------|
D|----------------------------------------------|    x4
A|--10/12--10/12--------10/12--10/12-------888--|
D|----------------0000----------------888-------|

End

G|-----------|
D|-----------|
A|-----------|
D|--0-0-00-0-|
comments
We did not receive enough feedback on this tab! Please rate:
print report bad tab
1 2 3 4 5
3 comments total.
0 reply
Jedddd wrote on November 10 2006, 07:53 pm

Whoops, I made a mistake on the Bridge it is supposed to be...

G|------------------------------------------------
D|------------------------------------------------
A|-------------------------------------------888--
D|--10/12--10/12--000000--10/12--10/12--888-------

0 reply
thricebassist11 wrote on July 11 2007, 05:55 pm

this whole song is actully in DGCF tuning but you can also play it in drop-d standard. the bass line for the bridge follows the guitar's riff so its supposed to be:
G|-------------------------------------------------------------------
D|-----------------------------------------------------7-------------
A|-8----7h8----5----------------8-----7h8---5-------8----8-7-5-------
D|---0-0-----0---0-0-000-0-0-0-0--0-0------0---0-7-8--8--------------


do that as many times as needed. otherwise good job!

0 reply
LCAY124 wrote on August 6 2007, 09:09 pm

yea, he's right, its couldbe dropped d

I want to post or [tab]
guest
You may want to rate the tab now too:
select rating
Please do not post tabs as comments. Select "correction" instead!