Oops, an error
Loading. Please wait.

They Perch On Their Stilts Pointing And Daring Me To Break Custom Bass Tab

version 1
version 1

Whole song

Interactive

1,297 views 1 this week
2 commentsread comments
1 2 3 4 5
please rate
add to favorites
launch autoscroll
font size
0
reset
guitar tuner
Autoscroll
slow
fast
+/-
esc
set tempo
stop
Help us to improve Ultimate-Guitar.com Take our survey!
×
Author
Tuning
D A D G B E
+++++++++++++++++++++++++++++++++++++++++++++++++++++++++++++++++++++++++++++
| Saosin- They Perch On Their Stilts Pointing And Daring Me To Break Custom |
+++++++++++++++++++++++++++++++++++++++++++++++++++++++++++++++++++++++++++++

Drop D

Intro.
1.
|-----------------------------------------------------------------|
|-----------------------------------------------------------------|
|---------------------------------333333x---------555555x---------|
|-000000x-3303035-000000x-3303035---------3303035---------3303035-|

2.
|------------|
|------------|
|------------|
|-0~---00-0~-|

Verse
"On my face.."    x2
3.
|---------------------------------------------------------|
|---------------------------------------------------------|
|---------------222222-222222-333333-333333---------------|
|-000000-000000-----------------------------000000-222222-|

Pre-Chorus
"I'm not sold on anything.."
4.
|-----------------------------------------------------|
|-----------------------------------------------------|
|--------------555555555555-333333333333-555555555555-|
|-000000000000----------------------------------------|

Chorus
"I see a blank notebook page.."
5.
|-----------------------------------------------------------------|
|-----------------------------------------------------------------|
|---------------------------------333333x---------555555x---------|
|-000000x-3303035-000000x-3303035---------3303035---------3303035-|

Bridge
6.
|----------------------------|
|----------------------------|
|---------5~------3~------5~-|
|-0~-------------------------|

7.
|----------------------------------|
|----------------------------------|
|------5~---5~---3~---3~---5~---5~-|
|-0~-------------------------------|

Chorus
"I see a blank notebook page.."
8.
|-----------------------------------------------------------------|
|-----------------------------------------------------------------|
|---------------------------------333333x---------555555x---------|
|-000000x-3303035-000000x-3303035---------3303035---------3303035-|

During the guitar solo
play

9.
|----------------------------------------------------------|
|----------------------------------------------------------|
|---------------5-555555-555553-333333-333335-555555-55555-| x2
|-0-000000-00000-------------------------------------------|

And finishes with:

10.
"Right side falls heavenly grace to you I owe you too.."
|-------------------|
|-------------------|
|------5~---2~---3~-| To fade..
|-0~----------------|

++++++++++++++++++++++++

Lyrics:

On my face I scratched out something like a silhouette
Around the golden ten like lambs
On my face I've hidden away any embarrassment,
Away from my acquaintances
I'm not sold on anything but half a dream
I'm not sensing a thing

I see a blank notebook page
And it's my life and there is
Nothing I can think to write
I fear the thought of not sensing a thing

I hope you don't see a thing
I said, smile through everyone you ever see
(So what you gave him the time of day)
Twist back and end this suffering
I'll dance around, I honestly give up and de robe

I see a blank notebook page
And it's my life and there is
Nothing I can think to write
I fear the thought of not sensing a thing

Right side falls
Heavenly grace to you I owe you too
Right side because
Heaven and I should be so easy

++++++++++++++++++++++++

+++++++++++++++++++++++++++++++++
| RaiLeff                       |
| Underground__Dora@hotmail.com |
+++++++++++++++++++++++++++++++++
Suggest correction
Give kudos to tab author, rate the tab!
1 2 3 4 5
comments
print report bad tab
2 comments total.
0 reply
LCAY124 178 wrote on August 20 2007, 11:43 am

wat u have written is a tuneing for DGCA or every string dropped

0 reply
eblood21 43 wrote on February 22 2008, 01:52 pm

yeah its all right if u just make every string dropped instead of just dropped D, but the song is played in reg. drop d not full step down

guest
You may want to rate the tab now too:
select rating
Please do not post tabs as comments. Select "correction" instead!