Oops, an error
Loading. Please wait.

Translating The Name Tab

version 1
version 1

Album

Whole song

Interactive

4,111 views 1 this week
2 commentsread comments
1 2 3 4 5
worth learning
x 7
add to favorites
launch autoscroll
font size
0
reset
how to read this tab
guitar tuner
Autoscroll
slow
fast
+/-
esc
set tempo
stop
Help us to improve Ultimate-Guitar.com Take our survey!
×
Author
-------------------------------------------------------------------------------
                         TRANSLATING THE NAME - Saosin
-------------------------------------------------------------------------------
Tabbed by: Robert Piller
Email: nothin7@hotmail.com

Tuning: Full step down, Drop C for tracks 2 and 3

Besides Seven Years, these tabs aren't perfect, though they are nicely condensed and 
for one guitar.

Seven Years (Acoustic)
 |Verse x6 (Taking on…)  |Chorus x2 (That mistake was…) |Bridge x4 (Don’t…)
d|-[RIFF-A-x2][RIFF-B-x2]|-RR-[RIFF-C--x2]------------R-|-------------------------------|
A|-----------------------|-II-------------------------I-|-------------------------------|
F|-----------------------|-FF-------------------------F-|-------------------------------|
C|----12---------12------|-FF-----12----------12------F-|--12-----12-----12------12-----|
G|--10--10-10--10--10-10-|------12--12--12--10--10-10---|----10-----10-----10------12---|
D|-0------0---8------8---|-AA-10------10---7------7---B-|-0----0-0----0-8----8-10----10-|

Translating The Name
 |Intro (+ Sweet penance…) |Verse x2      |Chorus x2 |Bridge x2(v)  v v v etc
d|-[REPEAT-x2]-[REPEAT-x2]-|-0-0-3------3-|----7-8-7-|---0-|---000---------------|---|
A|---0-00-0-0----0-00----0-|-1-0-1--5-5-5-|-10-0-x-0-|---0-|---000---------------|---|
F|-2--5--5-5-0----5--57-5--|-2-2-2--5-4-5-|--9-x-5-x-|-2-2-|-2-454-2-----7-7-----|-5-|
C|-2-----------3-----------|-2-2-2--3-3-3-|--7-5-3-5-|-2-2-|-2-----2-3-3-7-7-3-5-|---|
G|-0-----------3-----------|-0-0-0--3-3-3-|--7-5-3-5-|-0-0-|-0-----0-3-3-5-5-3-5-|---|
C|-------------3-----------|--------3-3-3-|--7-5-3-5-|-----|---------3-3-----3-5-|---|


3rd Measurement In C (Acoustic)
 |Intro/Chorus x2                      |Verse x2 |Prechorus  |Bridge x6|End
d|-------------------------------------|---------|-----------|---------|-----|
A|-------------------------------------|---------|-----------|---------|-----|
F|-------------------------------------|---------|-----------|---------|-----|
C|-4-6-7-6-0-4-6-9-7-2-4-6-6666777-0-2-|-4-2-0-2-|-4-9-0-0-2-|-0-2-4-9-|-0-2-|
G|-4-4-4-4-0-0-0-0-0-2-2-2---------0-2-|-4-2-0-2-|-4-7-0-0-2-|-0-2-4-7-|-0-2-|
C|-4-4-4-4-0-0-0-0-0-2-2-2---------0-2-|-4-2-0-2-|-4-7-0-0-2-|-0-2-4-7-|-0-2-|


Lost Symphonies
 |Intro x2 (To install…)    |Verse x5 (Replace…)    then Guitar 2 |Chorus x2
d|--------------------------|----------12-10------------=---------|---------=-***-****-|
A|--------------------------|--10-12-10-----12-10-10h12-=---------|---------=--7-------|
F|-7---------------4-7------|-9------------------9------=-----5-2-|-----7-7-=-5-5-7----|
C|-5--2h4-4h5-4h5h7-5-5p4h5-|---------------------------=-2-5-5-2-|-2-2-5-7-=------7-7-|
G|-3------------------------|---------------------------=-2-5-3-0-|-2-2-3-5-=-------7--|
D|---0---0---0--------------|---------------------------=-0-3-----|-0-0-----=----------|


They Perched On Their Stilts, Pointing And Daring Me To Break Custom
 |Intro/Chorus (I see a blank…)  |On my face… On my face…|I’m not… |Interlude
 | x6---RIFF-A---- x6  x6  x6  x4| -x5   -x5   --x2.8--- |         | ---x2---------------|
d|-3---------------3-R-3-R---R---|-3-----2-----0-0-0-0-0-|---5-3---|----------|----------|
A|-------------------I---I-8-I---|--0--0--0--0-7-7-7-8-5-|---5-3-7-|-RIFF-A,--|-----3----|
F|-------------------F-7-F-7-F---|---0-----0-------------|---7-7-7-|-END-ON:--|---7-4-7--|
C|-2-5-4h5p4-4-4h5-2-F-5-F-5-F-2-|-----------------------|-2-7-5-7-|--------4-|-2-7-4-5--|
G|-2---------------2---3---5---2-|-[REPEAT-x2][REPEAT-x4]|-2-5-3-5-|-7552233--|-2-5-2-3--|
D|-0--------0-0----0-A---A---A-0-|-----------------------|-0-------|----------|-0--------|
Suggest correction
comments
print report bad tab
2 comments total.
0 reply
->-Petrucci-<- 10 wrote on February 25 2007, 05:54 am

this is shit!!! was soidn des darstellen!!!§&$"%§$

0 reply
TDG Tabs 171 wrote on April 13 2009, 08:03 pm

dude, i couldnt even read any of it.

guest
You may want to rate the tab now too:
select rating
Please do not post tabs as comments. Select "correction" instead!