Oops, an error
Loading. Please wait.

Uphill Battle Bass Tab

version 1
version 1

Whole song

Interactive

230 views 1 this week
no commentswrite comment
1 2 3 4 5
3 more votes to show rating
add to favorites
launch autoscroll
font size
0
reset
guitar tuner
Autoscroll
slow
fast
+/-
esc
set tempo
stop
Help us to improve Ultimate-Guitar.com Take our survey!
×
Author
Tuning
D A D G B E
+++++++++++++++++++++++++
| Saosin- Uphill Battle |
+++++++++++++++++++++++++

Drop D

Verse
"Do you feel sick.."      x2
1.
|-----------------------------------------------|
|-----------------------------------------------|
|-0000000000000000000000------------------------|
|------------------------3333333333333333333333-|
  
Just listen closely to the song and play it with the rythm

Pre-Chorus
"Are you aware that I'm falling faster.."
2.
|------------------------------------------------|
|------------------------------------------------|
|------------------------------------------------|
|-11111111111-33333333333-55555555555-3333333333-|

Chorus
"We had said it was all good.."
3.
|------------------------------------------------|
|------------------------------------------------|
|-00000000x--00x--00x--0-------------------------|
|-----------------------33333333x--33x--33x--33x-|

Outro
4.
|----|
|----|
|-0~-|
|----|

Verse
"Do you feel sick.."      x2
5.
|-----------------------------------------------|
|-----------------------------------------------|
|-0000000000000000000000------------------------|
|------------------------3333333333333333333333-|

Pre-Chorus
"Are you aware that I'm falling faster.."
6.
|------------------------------------------------|
|------------------------------------------------|
|------------------------------------------------|
|-11111111111-33333333333-55555555555-3333333333-|

Chorus
"We had said it was all good.."
7.
|------------------------------------------------|
|------------------------------------------------|
|-00000000x--00x--00x--0-------------------------|
|-----------------------33333333x--33x--33x--33x-|

8.
|------------------------------------|
|------------------------------------|
|------------------------------------|
|-1111111-11111111-33333333-33333333-|

9.
|------------------------------------|
|------------------------------------|
|-0000000-00000000-------------------|
|------------------33333333-33333333-|

10.
|------------------------------------|
|------------------------------------|
|------------------------------------|
|-1111111-11111111-33333333-33333333-|

"We had said it was all good.."          x2
11.
|------------------------------------------------|
|------------------------------------------------|
|-00000000x--00x--00x--0-------------------------|
|-----------------------33333333x--33x--33x--33x-|

Outro
"Just close your eyes.."
12.
|--------------------------------------------------|
|--------------------------------------------------|
|-000000000-0--------------------------------------|
|-------------333333333-3-111111111-1-111111111-3~-|

13.
|-------------------------------------------------|
|-------------------------------------------------|
|-000000-0--7\333333333-3-------------------------|
|-------------------------111111111-1-111111111-1-|

"Bass Solo"
Well.. It's pretty lame :P

14.
|----------------|
|----------------|
|-00-000-0-0-000-|---x4
|----------------|

Chorus
"We don't care.."
15.
|----------------------------------------------|
|----------------------------------------------|
|-00000000000----------------------------------|
|-------------3333333333-1111111111-3333333333-|

16.
|----|
|----|
|-0~-|
|----|

¤

++++++++++++++++++++++++++

Lyrics:

Do you feel sick when you read it
Do you think that I can feel it faster
Away with the rose I gave
Do you wear it with confidence
Are you aware that I can feel it faster
Away with the rose I gave

Are you aware that I'm falling faster
Are you aware that I'm falling faster
Just like she said (just like she said)
Behind closed doors (just like she said)

We had said it was all good
We had said
I'll waste it all when I'll be down with it

It's been this way for as long as I can remember
You'll be safe and sound
It's been this way for as long as I can remember

We had said it was still good
We had said
I'll waste it all when I'll be down with

We don't care what we have done and seen

Just close your eyes
For every day
For every day
Please once
Do what it said
I was waiting and I was waiting
And I'll be fine with
I'll be fine again

We don't care what we have done and seen
We gave up everything, we gave up all we had

++++++++++++++++++++++++++

+++++++++++++++++++++++++++++++++
| RaiLeff                       |
| Underground__Dora@hotmail.com |
+++++++++++++++++++++++++++++++++
Suggest correction
Give kudos to tab author, rate the tab!
1 2 3 4 5
comments
print report bad tab
guest
You may want to rate the tab now too:
select rating
Wanna post a correction for this tab? Suggest correction