Oops, an error
Loading. Please wait.

Voices tab

version 3
version 3

Whole song

by Saosin
44,394 views 3 this week
no commentswrite comment
1 2 3 4 5
x 10
add to favorites
×
Save as Personal and add changes to this tab that will be seen only by you. Learn more ›
×
You can save this tab as Personal to edit and correct it or add notes. All changes will be seen only by you. Learn more »
launch autoscroll
font size
0
reset
how to read this tab
guitar tuner
edit
Autoscroll
slow
fast
+/-
esc
set tempo
stop
Tuning- Down a whole step
D G C F A D 

[Intro]
   Q=90
   N.C.
  4/4
(Gtr 1)
D|------12-0h12-------------12-0h12--------|
A|-----------------------------------------|
F|-0h11---------11-0h9-0h11---------11-0h9-|
C|-----------------------------------------|
G|-----------------------------------------|
D|-----------------------------------------|

(Gtr 2)
D|-----------------------------------------|
A|-----------------------------------------|
F|-----------------------------------------|
C|-----------------------------------------|
G|-----------------------------------------|
D|-----------------------------------------|

   B5
D|------12-0h12--------14-14-14-14-10-10-10-10-|
A|----------------------x--x--x--x--x--x--x--x-|
F|-0h11---------11-0-9s11-11-11-11--7--7--7--7-|
C|---------------------------------------------|
G|---------------------------------------------|
D|---------------------------------------------|

D|---------------------------------------------|
A|---------------------------------------------|
F|-4--4--4-4--4--4-4-4--4--4--4--4--4--4--4--4-|
C|-4--4--4-4--4--4-4-4--4--4--4--4--4--4--4--4-|
G|-2--2--2-2--2--2-2-2--2--2--2--2--2--2--2--2-|
D|---------------------------------------------|

   D5
D|------14-0h14--------14-14-14-14-17-17-17-17-|
A|----------------------x--x--x--x--x--x--x--x-|
F|-0h11---------11-0-9s11-11-11-11-14-14-14-14-|
C|---------------------------------------------|
G|---------------------------------------------|
D|---------------------------------------------|

D|---------------------------------------------|
A|---------------------------------------------|
F|-7--7--7-7--7--7-7-7--7--7--7--7--7--7--7--7-|
C|-7--7--7-7--7--7-7-7--7--7--7--7--7--7--7--7-|
G|-5--5--5-5--5--5-5-5--5--5--5--5--5--5--5--5-|
D|---------------------------------------------|

   A5                                            G5
D|------12-0h12--------14-14-14-14-10-10-10-10-|------14-0h14---------14-0h14---------14p0-|
A|----------------------x--x--x--x--x--x--x--x-|-------------------------------------------|
F|-0h11---------11-0-9s11-11-11-11--7--7--7--7-|-0h11---------11-0h11---------11-0h11------|
C|---------------------------------------------|-------------------------------------------|
G|---------------------------------------------|-------------------------------------------|
D|---------------------------------------------|-------------------------------------------|

D|---------------------------------------------|-------------------------------------------|
A|---------------------------------------------|-------------------------------------------|
F|---------------------------------------------|-------------------------------------------|
C|-7--7--7-7--7--7-7-7--7--7--7--7--7--7--7--7-|-5--5--5-5--5--5-5--5--5-5--5--5-5--5--5-5-|
G|-7--7--7-7--7--7-7-7--7--7--7--7--7--7--7--7-|-5--5--5-5--5--5-5--5--5-5--5--5-5--5--5-5-|
D|-5--5--5-5--5--5-5-5--5--5--5--5--5--5--5--5-|-3--3--3-3--3--3-3--3--3-3--3--3-3--3--3-3-|

[Verse 1]
   B5                                      N.C.
   >
D|-------------------|-------------------|-----------------|------------------|
A|-------------------|-------------------|-----------------|------------------|
F|-4-----------------|-(4)---------------|-----------------|------------------|
C|-4-----------------|-(4)---------------|-----------------|------------------|
G|-2-----------------|-(2)---------------|-----------------|------------------|
D|-------------------|-------------------|-----------------|------------------|

D|-0-0-0-0-0-0--0--0-|--0--0-0-0-0-0-0-0-|-0-0-0-0-0-0-0-0-|-0-0-0-0-0-0-0-0--|
A|-7-7-7-7-7-7S10-10S|==5--5-5-5-5-5S7-7-|-7S3-3-3-3-3-3-3-|-3S2-2-2-2-2-2-2--|
F|-------------------|-------------------|-----------------|------------------|
C|-------------------|-------------------|-----------------|------------------|
G|-------------------|-------------------|-----------------|------------------|
D|-------------------|-------------------|-----------------|------------------|

   N.C.
(Gtr 2)
D|-0-0-0-0-0-0--0--0-|-0-0-0-0-0-0--0--0-|
A|-7-7-7-7-7-7S10-10S|=5-5-5-5-5-5S10-10-|
F|-------------------|-------------------|
C|-------------------|-------------------|
G|-------------------|-------------------|
D|-------------------|-------------------|

D|--0--0--0--0--0--0--0--0-|--0--0--0--0--0--0--0--0--|
A|-10-12-12-12-12-12-12-12S|=15-15-15S14-14-14-14-14--|
F|-------------------------|--------------------------|
C|-------------------------|--------------------------|
G|-------------------------|--------------------------|
D|-------------------------|--------------------------|

[Pre-Chorus]
   N.C.
(Gtr 1)
D|-----------------------------------------------|
A|-----------------------------------------------|
F|-------------11-14--0-11--9----9---11----------|
C|---0-11-12-0----------------0----0----12--0-12-|
G|-----------------------------------------------|
D|-----------------------------------------------|

(Gtr 2)
D|---0-----0----0-----0-----0----0----0-----0----|
A|-\12----12---12----12----12---12---12----12S===|
F|-----------------------------------------------|
C|-----------------------------------------------|
G|-----------------------------------------------|
D|-----------------------------------------------|

D|----------------------------------------------|
A|----------------------------------------------|
F|------------11-14--0-11--9----9---11----------|
C|--0-11-12-0----------------0----0----12--0-12-|
G|----------------------------------------------|
D|----------------------------------------------|

D|--0-----0----0-----0-----0----0----0-----0----|
A|-15----15---15----14----14---14---14----14S===|
F|----------------------------------------------|
C|----------------------------------------------|
G|----------------------------------------------|
D|----------------------------------------------|

   N.C.
D|----------------------------------------------|
A|----------------------------------------------|
F|------------11-14--0-11--9----9---11----------|
C|--0-11-12-0----------------0----0----12--0-12-|
G|----------------------------------------------|
D|----------------------------------------------|

D|--0-----0----0-----0-----0----0----0-----0----|
A|-12----12---12----12----12---12---12----12S===|
F|----------------------------------------------|
C|----------------------------------------------|
G|----------------------------------------------|
D|----------------------------------------------|

D|----------------------------------------------|
A|----------------------------------------------|
F|------------11-14--0-11--9----9---11----------|
C|--0-11-12-0----------------0----0----12--0-12-|
G|----------------------------------------------|
D|----------------------------------------------|

D|--0-----0----0-----0-----0---19----0----19----|
A|-15----15---15S===17----17---17---17----17----|
F|----------------------------------------------|
C|----------------------------------------------|
G|----------------------------------------------|
D|----------------------------------------------|

[Chorus]
     B5
D|-------12-0h12--------14-14-14-14-10-10-10-10-|
A|o----------------------x--x--x--x--x--x--x--x-|
F|--0h11---------11-0-9s11-11-11-11--7--7--7--7-|
C|----------------------------------------------|
G|o---------------------------------------------|
D|----------------------------------------------|

D|----------------------------------------------|
A|o---------------------------------------------|
F|--4--4--4-4--4--4-4-4--4--4--4--4--4--4--4--4-|
C|--4--4--4-4--4--4-4-4--4--4--4--4--4--4--4--4-|
G|o-2--2--2-2--2--2-2-2--2--2--2--2--2--2--2--2-|
D|----------------------------------------------|

   D5
D|------14-0h14--------14-14-14-14-17-17-17-17-|
A|----------------------x--x--x--x--x--x--x--x-|
F|-0h11---------11-0-9s11-11-11-11-14-14-14-14-|
C|---------------------------------------------|
G|---------------------------------------------|
D|---------------------------------------------|

D|---------------------------------------------|
A|---------------------------------------------|
F|-7--7--7-7--7--7-7-7--7--7--7--7--7--7--7--7-|
C|-7--7--7-7--7--7-7-7--7--7--7--7--7--7--7--7-|
G|-5--5--5-5--5--5-5-5--5--5--5--5--5--5--5--5-|
D|---------------------------------------------|

   A5
D|------12-0h12--------14-14-14-14-10-10-10-10-|
A|----------------------x--x--x--x--x--x--x--x-|
F|-0h11---------11-0-9s11-11-11-11--7--7--7--7-|
C|---------------------------------------------|
G|---------------------------------------------|
D|---------------------------------------------|

D|---------------------------------------------|
A|---------------------------------------------|
F|---------------------------------------------|
C|-7--7--7-7--7--7-7-7--7--7--7--7--7--7--7--7-|
G|-7--7--7-7--7--7-7-7--7--7--7--7--7--7--7--7-|
D|-5--5--5-5--5--5-5-5--5--5--5--5--5--5--5--5-|

   G5
D|------14-0h14---------14-0h14---------14p0--|
A|-------------------------------------------o|
F|-0h11---------11-0h11---------11-0h11-------|
C|--------------------------------------------|
G|-------------------------------------------o|
D|--------------------------------------------|

D|--------------------------------------------|
A|-------------------------------------------o|
F|--------------------------------------------|
C|-5--5--5-5--5--5-5--5--5-5--5--5-5--5--5-5--|
G|-5--5--5-5--5--5-5--5--5-5--5--5-5--5--5-5-o|
D|-3--3--3-3--3--3-3--3--3-3--3--3-3--3--3-3--|

[Verse]
   B5                                      N.C.
   >
D|-------------------|-------------------|-----------------|------------------|
A|-------------------|-------------------|-----------------|------------------|
F|-4-----------------|-(4)---------------|-----------------|------------------|
C|-4-----------------|-(4)---------------|-----------------|------------------|
G|-2-----------------|-(2)---------------|-----------------|------------------|
D|-------------------|-------------------|-----------------|------------------|

D|-0-0-0-0-0-0--0--0-|--0--0-0-0-0-0-0-0-|-0-0-0-0-0-0-0-0-|-0-0-0-0-0-0-0-0--|
A|-7-7-7-7-7-7S10-10S|==5--5-5-5-5-5S7-7-|-7S3-3-3-3-3-3-3-|-3S2-2-2-2-2-2-2--|
F|-------------------|-------------------|-----------------|------------------|
C|-------------------|-------------------|-----------------|------------------|
G|-------------------|-------------------|-----------------|------------------|
D|-------------------|-------------------|-----------------|------------------|

   N.C.
(Gtr 2)
D|--0-----0-----0-----0-----0-----0-----0-----0----|
A|--7-----7-----7-----7-----7-----7S===10----10S===|
F|-------------------------------------------------|
C|-------------------------------------------------|
G|-------------------------------------------------|
D|-------------------------------------------------|

(Gtr 4, 5)
D|-17-14-15----14----------------------------------|
A|----------17----15-17-14-15----14----------------|
F|----------------------------16----14-16----14----|
C|----------------------------------------17----16-|
G|-------------------------------------------------|
D|-------------------------------------------------|

D|--0-----0-----0-----0-----0-----0-----0-----0----|
A|--5-----5-----5-----5-----5-----5S===10----10----|
F|-------------------------------------------------|
C|-------------------------------------------------|
G|-------------------------------------------------|
D|-------------------------------------------------|

D|-------------------------------------------------|
A|----------------------------------------------14-|
F|----------------------------------------14-16----|
C|-17-14-16----14----------------14-16-17----------|
G|----------17----16-17-14-16-17-------------------|
D|-------------------------------------------------|

   N.C.
D|--0-----0-----0-----0-----0-----0-----0-----0----|
A|-10----12----12----12----12----12----12----12S===|
F|-------------------------------------------------|
C|-------------------------------------------------|
G|-------------------------------------------------|
D|-------------------------------------------------|

D|-17-14-15----14----------------------------------|
A|----------17----15-17-14-15----14----------------|
F|----------------------------16----14-16----14----|
C|----------------------------------------17----16-|
G|-------------------------------------------------|
D|-------------------------------------------------|

D|--0-----0-----0-----0-----0-----0-----0-----0----|
A|-15----15----15S===14----14----14----14----14----|
F|-------------------------------------------------|
C|-------------------------------------------------|
G|-------------------------------------------------|
D|-------------------------------------------------|

D|-------------------------------------------------|
A|----------------------------------------------14-|
F|----------------------------------------14-16----|
C|-17-14-16----14----------------14-16-17----------|
G|----------17----16-17-14-16-17-------------------|
D|-------------------------------------------------|

[Pre-Chorus]
   N.C.
(Gtr 1)
D|-----------------------------------------------|
A|-----------------------------------------------|
F|-------------11-14--0-11--9----9---11----------|
C|---0-11-12-0----------------0----0----12--0-12-|
G|-----------------------------------------------|
D|-----------------------------------------------|

(Gtr 2)
D|---0-----0----0-----0-----0----0----0-----0----|
A|-\12----12---12----12----12---12---12----12S===|
F|-----------------------------------------------|
C|-----------------------------------------------|
G|-----------------------------------------------|
D|-----------------------------------------------|

D|----------------------------------------------|
A|----------------------------------------------|
F|------------11-14--0-11--9----9---11----------|
C|--0-11-12-0----------------0----0----12--0-12-|
G|----------------------------------------------|
D|----------------------------------------------|

D|--0-----0----0-----0-----0----0----0-----0----|
A|-15----15---15----14----14---14---14----14S===|
F|----------------------------------------------|
C|----------------------------------------------|
G|----------------------------------------------|
D|----------------------------------------------|

   N.C.
D|----------------------------------------------|
A|----------------------------------------------|
F|------------11-14--0-11--9----9---11----------|
C|--0-11-12-0----------------0----0----12--0-12-|
G|----------------------------------------------|
D|----------------------------------------------|

D|--0-----0----0-----0-----0----0----0-----0----|
A|-12----12---12----12----12---12---12----12S===|
F|----------------------------------------------|
C|----------------------------------------------|
G|----------------------------------------------|
D|----------------------------------------------|

D|----------------------------------------------|
A|----------------------------------------------|
F|------------11-14--0-11--9----9---11----------|
C|--0-11-12-0----------------0----0----12--0-12-|
G|----------------------------------------------|
D|----------------------------------------------|

D|--0-----0----0-----0-----0---19----0----19----|
A|-15----15---15S===17----17---17---17----17----|
F|----------------------------------------------|
C|----------------------------------------------|
G|----------------------------------------------|
D|----------------------------------------------|

[Chorus]
     B5
D|-------12-0h12--------14-14-14-14-10-10-10-10-|
A|o----------------------x--x--x--x--x--x--x--x-|
F|--0h11---------11-0-9s11-11-11-11--7--7--7--7-|
C|----------------------------------------------|
G|o---------------------------------------------|
D|----------------------------------------------|

D|----------------------------------------------|
A|o---------------------------------------------|
F|--4--4--4-4--4--4-4-4--4--4--4--4--4--4--4--4-|
C|--4--4--4-4--4--4-4-4--4--4--4--4--4--4--4--4-|
G|o-2--2--2-2--2--2-2-2--2--2--2--2--2--2--2--2-|
D|----------------------------------------------|

   D5
D|------14-0h14--------14-14-14-14-17-17-17-17-|
A|----------------------x--x--x--x--x--x--x--x-|
F|-0h11---------11-0-9s11-11-11-11-14-14-14-14-|
C|---------------------------------------------|
G|---------------------------------------------|
D|---------------------------------------------|

D|---------------------------------------------|
A|---------------------------------------------|
F|-7--7--7-7--7--7-7-7--7--7--7--7--7--7--7--7-|
C|-7--7--7-7--7--7-7-7--7--7--7--7--7--7--7--7-|
G|-5--5--5-5--5--5-5-5--5--5--5--5--5--5--5--5-|
D|---------------------------------------------|

   A5
D|------12-0h12--------14-14-14-14-10-10-10-10-|
A|----------------------x--x--x--x--x--x--x--x-|
F|-0h11---------11-0-9s11-11-11-11--7--7--7--7-|
C|---------------------------------------------|
G|---------------------------------------------|
D|---------------------------------------------|

D|---------------------------------------------|
A|---------------------------------------------|
F|---------------------------------------------|
C|-7--7--7-7--7--7-7-7--7--7--7--7--7--7--7--7-|
G|-7--7--7-7--7--7-7-7--7--7--7--7--7--7--7--7-|
D|-5--5--5-5--5--5-5-5--5--5--5--5--5--5--5--5-|

   G5
D|------14-0h14---------14-0h14---------14p0--|
A|-------------------------------------------o|
F|-0h11---------11-0h11---------11-0h11-------|
C|--------------------------------------------|
G|-------------------------------------------o|
D|--------------------------------------------|

D|--------------------------------------------|
A|-------------------------------------------o|
F|--------------------------------------------|
C|-5--5--5-5--5--5-5--5--5-5--5--5-5--5--5-5--|
G|-5--5--5-5--5--5-5--5--5-5--5--5-5--5--5-5-o|
D|-3--3--3-3--3--3-3--3--3-3--3--3-3--3--3-3--|

[Breakdown]
     B5      N.C.
(Gtr 1, 2)
D|-----------------------------|
A|o----------------------------|
F|--4-4-4-4---<7>-------<7>----|
C|--4-4-4-4-x/<7>\x--x/-<7>\x--|
G|o-2-2-2-2-x/<7>\x--x/-<7>\x--|
D|----------2s=7s=2-(2)s=7s(2)-|

 1.                                   2.
  B5      N.C.                         B5      A5F#G5
                                       PM----------|

D|-----------------------------------|------------------|
A|----------------------------------o|------------------|
F|-4-4-4-4---(<7>)----------<7>------|------------------|
C|-4-4-4-4-x/-<7>--\x--x--x-----<7>--|-4-4-4-4-2--------|
G|-2-2-2-2-x/-<7>--\x--x--x-----<7>-o|-2-2-2-2-0-4S5----|
D|---------2s==7s===2-(2)sx-----<7>--|-----------2S3----|

[Interlude]
   Bm                        D/A
(Gtr 3)
D|-2-2-2-2-2-2-2-2-2-2-2-2-|-2-2-2-2-2-2-2-2-2-2-2-2-|
A|-3-3-3-3-3-3-3-3-3-3-3-3-|-3-3-3-3-3-3-3-3-3-3-3-3-|
F|-4-4-4-4-4-4-4-4-4-4-4-4-|-2-2-2-2-2-2-2-2-2-2-2-2-|
C|-4-4-4-4-4-4-4-4-4-4-4-4-|-0-0-0-0-0-0-0-0-0-0-0-0-|
G|-2-2-2-2-2-2-2-2-2-2-2-2-|-0-0-0-0-0-0-0-0-0-0-0-0-|
D|-------------------------|-------------------------|

   A                         G
D|-0-0-0-0-0-0-0-0-0-0-0-0-|-------------------------|
A|-2-2-2-2-2-2-2-2-2-2-2-2-|-0-0-0-0-0-0-0-0-0-0-0-0-|
F|-2-2-2-2-2-2-2-2-2-2-2-2-|-0-0-0-0-0-0-0-0-0-0-0-0-|
C|-2-2-2-2-2-2-2-2-2-2-2-2-|-0-0-0-0-0-0-0-0-0-0-0-0-|
G|-0-0-0-0-0-0-0-0-0-0-0-0-|-2-2-2-2-2-2-2-2-2-2-2-2-|
D|-------------------------|-3-3-3-3-3-3-3-3-3-3-3-3-|

   Bm
(Gtr 4)
D|--------------------------------------------|
A|-12-(12)s15---------------------------------|
F|--------------11---(11)s9-(9)---------------|
C|--------------------------------------------|
G|--------------------------------------------|
D|--------------------------------------------|

(Gtr 3)
D|--2---------2--2-2------2-----2-2-2-2-2-2-2-|
A|--3---------3--3-3------3-----3-3-3-3-3-3-3-|
F|--4---------4--4-4------4-----4-4-4-4-4-4-4-|
C|--4---------4--4-4------4-----4-4-4-4-4-4-4-|
G|--2---------2--2-2------2-----2-2-2-2-2-2-2-|
D|--------------------------------------------|

   D/A
D|--------------------------------------------|
A|-12-(12)s15---------------------------------|
F|--------------11---(11)s9-(9)---------------|
C|--------------------------------------------|
G|--------------------------------------------|
D|--------------------------------------------|

D|--2---------2--2-2------2-----2-2-2-2-2-2-2-|
A|--3---------3--3-3------3-----3-3-3-3-3-3-3-|
F|--2---------2--2-2------2-----2-2-2-2-2-2-2-|
C|--0---------0--0-0------0-----0-0-0-0-0-0-0-|
G|--0---------0--0-0------0-----0-0-0-0-0-0-0-|
D|--------------------------------------------|

   A                                           G
D|-------------------------------------------|-------------------|
A|-------------------------------------------|-------------------|
F|-------------------------------------------|------11-----(11)--|
C|-11-(11)b12r==(11)-------------------------|----9--------------|
G|---------------------12-(12)---------------|-12---(9)-----(9)--|
D|-------------------------------------------|-------------------|

D|--0---------0---0--0--0------0-0-0-0-0-0-0-|-------------------|
A|--2---------2---2--2--2------2-2-2-2-2-2-2-|-^0----------------|
F|--2---------2---2--2--2------2-2-2-2-2-2-2-|-^0----------------|
C|--2---------2---2--2--2------2-2-2-2-2-2-2-|-^0----------------|
G|--0---------0---0--0--0------0-0-0-0-0-0-0-|-^2----------------|
D|-------------------------------------------|-^3----------------|

[Outro]
     B5
(Gtr 1)
D|-------12-0h12--------14-14-14-14-10-10-10-10-|
A|o----------------------x--x--x--x--x--x--x--x-|
F|--0h11---------11-0-9s11-11-11-11--7--7--7--7-|
C|----------------------------------------------|
G|o---------------------------------------------|
D|----------------------------------------------|

(Gtr 2)
D|----------------------------------------------|
A|o---------------------------------------------|
F|--4--4--4-4--4--4-4-4--4--4--4--4--4--4--4--4-|
C|--4--4--4-4--4--4-4-4--4--4--4--4--4--4--4--4-|
G|o-2--2--2-2--2--2-2-2--2--2--2--2--2--2--2--2-|
D|----------------------------------------------|

   D5
D|------14-0h14--------14-14-14-14-17-17-17-17-|
A|----------------------x--x--x--x--x--x--x--x-|
F|-0h11---------11-0-9s11-11-11-11-14-14-14-14-|
C|---------------------------------------------|
G|---------------------------------------------|
D|---------------------------------------------|

D|---------------------------------------------|
A|---------------------------------------------|
F|-7--7--7-7--7--7-7-7--7--7--7--7--7--7--7--7-|
C|-7--7--7-7--7--7-7-7--7--7--7--7--7--7--7--7-|
G|-5--5--5-5--5--5-5-5--5--5--5--5--5--5--5--5-|
D|---------------------------------------------|

   A5
D|------12-0h12--------14-14-14-14-10-10-10-10-|
A|----------------------x--x--x--x--x--x--x--x-|
F|-0h11---------11-0-9s11-11-11-11--7--7--7--7-|
C|---------------------------------------------|
G|---------------------------------------------|
D|---------------------------------------------|

D|---------------------------------------------|
A|---------------------------------------------|
F|---------------------------------------------|
C|-7--7--7-7--7--7-7-7--7--7--7--7--7--7--7--7-|
G|-7--7--7-7--7--7-7-7--7--7--7--7--7--7--7--7-|
D|-5--5--5-5--5--5-5-5--5--5--5--5--5--5--5--5-|

   G5
                                             (4x)
D|------14-0h14---------14-0h14---------14p0--|
A|-------------------------------------------o|
F|-0h11---------11-0h11---------11-0h11-------|
C|--------------------------------------------|
G|-------------------------------------------o|
D|--------------------------------------------|

                                             (4x)
D|--------------------------------------------|
A|-------------------------------------------o|
F|--------------------------------------------|
C|-5--5--5-5--5--5-5--5--5-5--5--5-5--5--5-5--|
G|-5--5--5-5--5--5-5--5--5-5--5--5-5--5--5-5-o|
D|-3--3--3-3--3--3-3--3--3-3--3--3-3--3--3-3--|

[Outro]
   B5
D|------14-0h14---------14-0h14---------14p0-|
A|-------------------------------------------|
F|-0h11---------11-0h11---------11-0h11------|
C|-------------------------------------------|
G|-------------------------------------------|
D|-------------------------------------------|

D|-------------------------------------------|
A|-------------------------------------------|
F|-4--4--4-4--4--4-4--4--4-4--4--4-4--4--4-4-|
C|-4--4--4-4--4--4-4--4--4-4--4--4-4--4--4-4-|
G|-2--2--2-2--2--2-2--2--2-2--2--2-2--2--2-2-|
D|-------------------------------------------|

D|------17-0h17---------17-0h17---------17p0-|
A|-------------------------------------------|
F|-0h14---------14-0h14---------14-0h14------|
C|-------------------------------------------|
G|-------------------------------------------|
D|-------------------------------------------|

D|-------------------------------------------|
A|-------------------------------------------|
F|-4--4--4-4--4--4-4--4--4-4--4--4-4--4--4-4-|
C|-4--4--4-4--4--4-4--4--4-4--4--4-4--4--4-4-|
G|-2--2--2-2--2--2-2--2--2-2--2--2-2--2--2-2-|
D|-------------------------------------------|

   B5
D|------19-0h19---------19-0h19---------19p0-|
A|-------------------------------------------|
F|-0h16---------16-0h16---------16-0h16------|
C|-------------------------------------------|
G|-------------------------------------------|
D|-------------------------------------------|

D|-------------------------------------------|
A|-------------------------------------------|
F|-4--4--4-4--4--4-4--4--4-4--4--4-4--4--4-4-|
C|-4--4--4-4--4--4-4--4--4-4--4--4-4--4--4-4-|
G|-2--2--2-2--2--2-2--2--2-2--2--2-2--2--2-2-|
D|-------------------------------------------|

(Gtrs 4, 5)
D|-------------------------------------------|
A|-------------------------------------------|
F|-------------------------------------------|
C|-------------------------------------------|
G|-------------------------------------------|
D|-------------------------------------------|

                                                B5         Bm
D|------22-0h22---------22-0h22---------22p0-|----------|-----------|---------*|
A|-------------------------------------------|----------|-----------|---------*|
F|-0h19---------19-0h19---------19-0h19------|----------|-----------|---------*|
C|-------------------------------------------|----------|-----------|---------*|
G|-------------------------------------------|----------|-----------|---------*|
D|-------------------------------------------|----------|-----------|---------*|

(Gtr 6)
                                                           <
                                                           ~~~~~~~~~~~~~~~~
D|-------------------------------------------|----------|-10--------|-(10)----*|
A|-------------------------------------------|----------|-----------|---------*|
F|-4--4--4-4--4--4-4--4--4-4--4--4-4--4--4-4-|----------|--7--------|--(7)----*|
C|-4--4--4-4--4--4-4--4--4-4--4--4-4--4--4-4-|----------|-----------|---------*|
G|-2--2--2-2--2--2-2--2--2-2--2--2-2--2--2-2-|----------|-----------|---------*|
D|-------------------------------------------|----------|-----------|---------*|

                                               <           >
D|-------------------------------------------|----------|--2--------|--(2)----*|
A|-------------------------------------------|----------|--3--------|--(3)----*|
F|-------------------------------------------|----------|--4--------|--(4)----*|
C|-------------------------------------------|-4--------|--4--------|--(4)----*|
G|-------------------------------------------|-2--------|--2--------|--(2)----*|
D|-------------------------------------------|----------|-----------|---------*|



************************************

| h    Hammer-on
| x    Dead note
| p    Pull-off
| (n)  Ghost note
| >    Accented note
| \    Slide down
| *    Natural harmonic
| ~    Vibrato

************************************

            
            
Suggest correction
Creating personal tab
Creating personal tab
You can edit any tab online and save it as your Personal.

You can edit, replace or remove any tab part or add personal notes – all changes will be seen only by you.

Personal tabs can be accessed anytime from any device, even offline.
Learn more »
comments
print report bad tab
guest
You may want to rate the tab now too:
select rating
Wanna post a correction for this tab? Suggest correction