Oops, an error
Loading. Please wait.

Voices Bass Tab

version 4
version 4

Whole song

Interactive

526 views 1 this week
2 commentsread comments
1 2 3 4 5
please rate
add to favorites
launch autoscroll
font size
0
reset
guitar tuner
Tab Pro tools
  • play this tab
  • loop segment
  • change instrument
  • show fretboard
  • metronome
×
Best way to learn
"Voices"
Autoscroll
slow
fast
+/-
esc
set tempo
stop
Contributor
Difficulty
novice
Tabbed By: Rob
Email: Bass_Beast@comcast.net

Alright, this is my first tab so go easy haha.
I'm pretty sure that its right, it doesnt sound wrong.
I am playing in standard, but I'm not sure what Chris plays in, so yeah sorry haha. I'm 
sure I write upside down...so make sure you read what string I put the tab on!!!

Intro:

start at 0:02

E|-7777777777777777-8888888888888888-3333333333333333-2222222222222222-|
A|---------------------------------------------------------------------|
D|---------------------------------------------------------------------|
G|---------------------------------------------------------------------|

Verse:

E|-7-7-7-7-7-7-7-7-3-3-3-3-3-3-3-3-2-2-2-2-2-2-2-2-1-1-1-1-1-1-1-1-|
A|-----------------------------------------------------------------|
D|-----------------------------------------------------------------|
G|-----------------------------------------------------------------|

E|-7-7-7-7-7-7-7-7-3-3-3-3-3-3-3-3-2-2-2-2-2-2-2-2-5-5-5-5-5-5-5-5-|
A|-----------------------------------------------------------------|
D|-----------------------------------------------------------------|
G|-----------------------------------------------------------------|

E|-7-7-7-7-7-7-7-7-3-3-3-3-3-3-3-3-2-2-2-2-2-2-2-2-1-1-1-1-1-1-1-1-|
A|-----------------------------------------------------------------|
D|-----------------------------------------------------------------|
G|-----------------------------------------------------------------|


Chorus:

E|-7777777777777777-8888888888888888-3333333333333333-2222222222222222--|
A|----------------------------------------------------------------------|
D|----------------------------------------------------------------------|
G|----------------------------------------------------------------------| x2

Verse 2:

E|-7-7-7-7-7-7-7-7-3-3-3-3-3-3-3-3-2-2-2-2-2-2-2-2-1-1-1-1-1-1-1-1-|
A|-----------------------------------------------------------------|
D|-----------------------------------------------------------------|
G|-----------------------------------------------------------------|

E|-7-7-7-7-7-7-7-7-3-3-3-3-3-3-3-3-2-2-2-2-2-2-2-2-5-5-5-5-5-5-5-5-|
A|-----------------------------------------------------------------|
D|-----------------------------------------------------------------|
G|-----------------------------------------------------------------|

E|-7-7-7-7-7-7-7-7-3-3-3-3-3-3-3-3-2-2-2-2-2-2-2-2-1-1-1-1-1-1-1-1-|
A|-----------------------------------------------------------------|
D|-----------------------------------------------------------------|
G|-----------------------------------------------------------------|

Chorus:

E|-7777777777777777-8888888888888888-3333333333333333-2222222222222222--|
A|----------------------------------------------------------------------|
D|----------------------------------------------------------------------|
G|----------------------------------------------------------------------| x2

Break:

E|-7777-7777-7777--77-33-2-1-|
A|---------------------------|
D|---------------------------|
G|---------------------------|


E|-7~-8~-3~-2~   |-0-|
A|------------   |---|
D|------------   |---|
G|------------ x2|---|

Chorus:

E|-7777777777777777-8888888888888888-3333333333333333-2222222222222222--|
A|----------------------------------------------------------------------|
D|----------------------------------------------------------------------|
G|----------------------------------------------------------------------| x4

Outro:

E|-77777777777777778888888888888888-|
A|----------------------------------|
D|----------------------------------|
G|----------------------------------|

E|----------------------------------|
A|-77777777777777778888888888888888-|
D|----------------------------------|
G|----------------------------------|


End:

E|-7~

| /  slide up
| \  slide down
| h  hammer-on
| p  pull-off
| ~  vibrato
| +  harmonic
| x  Mute note
comments
We did not receive enough feedback on this tab! Please rate:
print report bad tab
1 2 3 4 5
2 comments total.
0 reply
Bass_Beast wrote on February 3 2008, 05:25 pm

Oops, I messed up on the verse, it should go like
this:

E|-7-7-7-7-7-7-7-7-3-3-3-3-3-3-3-3-2-2-2-2-2-2-2-2-1-1-1-1-1-1-1-1--|
A|--------------------------------------
-------------------------------|
D|---------------------------------------------------------------------|
G|----------
-----------------------------------------------------------|

E|-7-7-7-7-7-7-7-7-3-3-3-3-3-3-3-3-2-2-2-2-2-2-2-2-5-5-5
-5-5-5-5-5--|
A|---------------------------------------------------------------------|
D|-----------------------------
----------------------------------------|
G|---------------------------------------------------------------------|

E
|-7-7-7-7-7-7-7-7-3-3-3-3-3-3-3-3-2-2-2-2-2-2-2-2-1-1-1-1-1-1-1-1-|
A|-------------------------------------------------
--------------------|
D|---------------------------------------------------------------------|
G|---------------------
------------------------------------------------|

there we go, listen for timing

0 reply
Bass_Beast wrote on February 3 2008, 05:25 pm

never mind I'll just fix the tab itself..

I want to post or [tab]
guest
You may want to rate the tab now too:
select rating
Please do not post tabs as comments. Select "correction" instead!