Oops, an error
Loading. Please wait.

Youre No Angel Bass Tab

367 views 1 this week
no commentswrite comment
1 2 3 4 5
please rate
add to favorites
launch autoscroll
font size
0
reset
guitar tuner
Tab Pro tools
  • play this tab
  • loop segment
  • change instrument
  • show fretboard
  • metronome
×
Best way to learn
"Youre No Angel"
Autoscroll
slow
fast
+/-
esc
set tempo
stop
Contributor
+++++++++++++++++++++++++++
| Saosin- You're No Angel |
+++++++++++++++++++++++++++

Tuning: EADG

Intro
1.
G|----------------------------------------------|
D|--------666-333333-111--------666-333333-1133-|
A|-333333----------------333333-----------------|
E|----------------------------------------------|

2.
G|----------------------------------------------|
D|--------666-333333-111--------666-3~----------|
A|-333333----------------333333-----------------|
E|----------------------------------------------|

Verse
"Youre no angel..."
3.
G|-----------------------------------------------------|
D|-----------------------------------------------------|
A|-3-333-33-333-1-111-11-111-3-333-33-333--------------|--x2
E|----------------------------------------3-333-33-333-|

Pre-Chorus
"Maybe you dont know..."
4.
G|-------------------------------|
D|-------------------------------|
A|----------------------------1--|
E|-33333333-3x----44444444-4x----|

Chorus
5.
G|----------------------------------------------|
D|--------666-333333-111--------666-333333-1133-|
A|-333333----------------333333-----------------|
E|----------------------------------------------|

6.
G|----------------------------------------------|
D|--------666-333333-111--------666-3~----------|
A|-333333----------------333333-----------------|
E|----------------------------------------------|

Verse
7.
G|-----------------------------------------------------|
D|-----------------------------------------------------|
A|-3-333-33-333-1-111-11-111-3-333-33-333--------------|--x2
E|----------------------------------------3-333-33-333-|

Pre-Chorus
8.
G|-------------------------------|
D|-------------------------------|
A|----------------------------1--|
E|-33333333-3x----44444444-4x----|

Chorus
9.
G|----------------------------------------------|
D|--------666-333333-111--------666-333333-1133-|
A|-333333----------------333333-----------------|
E|----------------------------------------------|

10.
G|----------------------------------------------|
D|--------666-333333-111--------666-3~----------|
A|-333333----------------333333-----------------|
E|----------------------------------------------|

Bridge
11.
G|-----------------------------------------------------------------|
D|-----------------------------------------------------------------|
A|-----------------------------------------------------------------|
E|-44444444-4-4444-33333333-3-3666-44444444-4-4444-33333333-3-3666-|

12.
G|--------------------------------------------------------------------|
D|--------------------------------------------------------------------|
A|--------------------------------------------------------------------|
E|-44444444-4-4444-33333333-3-3666-44444444-4-4444-33333333-3-3333-1~-|

Chorus
13.
G|----------------------------------------------|
D|--------666-333333-111--------666-333333-1133-|
A|-333333----------------333333-----------------|--x4
E|----------------------------------------------|

14.
G|-----|
D|-----|
A|--3~-|
E|-----|

Any comments, suggestions, corrections, junk... Just post it above :P

+++++++++++++++++++++++++++++++++
| RaiLeff                       |
| Underground__Dora@Hotmail.Com |
+++++++++++++++++++++++++++++++++
comments
We did not receive enough feedback on this tab! Please rate:
print report bad tab
1 2 3 4 5
I want to post or [tab]
guest
You may want to rate the tab now too:
select rating
Please do not post tabs as comments. Select "correction" instead!