Oops, an error
Loading. Please wait.

Youre Not Alone Bass Tab

version 1
version 1

Whole song

Interactive

12,819 views 9 this week
4 commentsread comments
1 2 3 4 5
excellent!
x 9
add to favorites
launch autoscroll
font size
0
reset
guitar tuner
Tab Pro tools
  • play this tab
  • loop segment
  • change instrument
  • show fretboard
  • metronome
×
Best way to learn
"Youre Not Alone"
Autoscroll
slow
fast
+/-
esc
set tempo
stop
Contributor
Difficulty
novice
Band: Saosin
Song: You’re not alone
Album: Saosin
Tabbed by: Florian P. (dogsmack)

Tuning: Standard (EADG)


Intro/Verse
G|-------------------------|
D|-------------------------|    
A|-5555555-0----------087--|  ---------
E|-----------66666666------|          |
                                      |
G|-----------------------------|      |--- x2 
D|-----------------------------|      |
A|-5555555-0---------------087-| ------
E|-----------6666666688888-----| 

G|-------------------------|
D|-------------------------|    
A|-5555555-0----------087--|
E|-----------66666666------|

Pre-Chorus 
G|--------------------------|
D|--------------------------|   
A|-1111111-333333333—3/12\0-|
E|--------------------------|

Chorus  
G|-------------------------------
D|-------------------------------
A|-5555555-----------------------
E|---------6666666-1111111111111-           
     
-----------------------------------------------|
-----------------------------------------------|
-5555555---------88888887777777----------------|
---------6666666----------------66666666666666-|
        
Verse
G|-------------------------|
D|-------------------------|    
A|-5555555-0----------087--|  
E|-----------66666666------|          
                                      
G|-----------------------------|       
D|-----------------------------|      
A|-5555555-0---------------087-| 
E|-----------6666666688888-----| 

G|-------------------------|
D|-------------------------|    
A|-5555555-0----------087--|  
E|-----------66666666------|          

Pre-Chorus
G|--------------------------|
D|--------------------------|   
A|-1111111-333333333—3/12\0-|
E|--------------------------|

Chorus  
G|-------------------------------
D|-------------------------------
A|-5555555-----------------------
E|---------6666666-1111111111111-           
     
--------------------------------|
--------------------------------|
-5555555---------88888887777777-|
---------6666666----------------|

|----------------------------------------------|
|----------------------------------------------|
|-5555555----------------3333333---------------|
|---------6666666-1111111-------66666666666666-|

Guitar Solo 
|-------------------------------------------------------|
|-------------------------------------------------------|
|----------------------------5555555555555--------------|
|-1111111111111-666666666666---------------666666666666-|

|-------------------------------------------------------|
|------------------------------------------111111111111-|
|----------------------------5555555555555--------------|
|-1111111111111-666666666666----------------------------|

Break (let all notes ring)
|-------------------------------------------------------|
|-------------------------------------------------------|
|-5~---------------------0/5~-----------8~-7~-----------|
|--------6~------1~---------------6~--------------------|

Final Chorus
G|-------------------------------
D|-------------------------------
A|-5555555-----------------------
E|---------6666666-1111111111111-           
     
--------------------------------|
--------------------------------|
-5555555---------88888887777777-|
---------6666666----------------|

|-----------------------------------------------------------|
|-----------------------------------------------------------|
|-5555555----------------3333333----------------------------|
|---------6666666-1111111-------666666666666666666666666666-|

Outro
G|-------------------------|
D|-------------------------|    
A|-5555555-0----------087--|  
E|-----------66666666------|          
                                      
G|-----------------------------|       
D|-----------------------------|      
A|-5555555-0-------------------|
E|-----------6666666688888-----| 

That’s it! Cool song – cool band !

If there’s anything wrong, so pls email me: flo@the-other-voice.de

Enjoy !
comments
print report bad tab
4 comments total. Showing first comments.
+1 reply
thricebassist11 wrote on July 10 2007, 10:34 am

this song can either be played in drop-d or E standard. but either way the intro/verse thing is played like this:
G|-------------------------|
D|-------------------------|
A|-5555555-0----------8 10--| ---------
E|-----------66666666------8|

and the second part of it is like this:
G|-----------------------------|
D|-----------------------------|
A|-5555555-0---------------8-7---|
E|-----------6666666688888-----8|

that should be correct. otherwise great tab!

0 reply
dogsmack wrote on August 3 2007, 07:37 pm

thx ! ;)

0 reply
BreAkdOwn396 wrote on September 30 2007, 01:39 pm

no i think the 0 8 7 is right, well it sounds BA either way. great tab though!

I want to post or [tab]
guest
You may want to rate the tab now too:
select rating
Please do not post tabs as comments. Select "correction" instead!