Oops, an error
Loading. Please wait.

Youre Not Alone tab

version 1
version 1

Interactive

by Saosin
19,893 views 3 this week
2 commentsread comments
1 2 3 4 5
x 10
add to favorites
×
Save as Personal and add changes to this tab that will be seen only by you. Learn more ›
×
You can save this tab as Personal to edit and correct it or add notes. All changes will be seen only by you. Learn more »
launch autoscroll
font size
0
reset
how to read this tab
guitar tuner
edit
Autoscroll
slow
fast
+/-
esc
set tempo
stop
----------------------------------------------------------------------------
                             Your Not Alone - Saosin
----------------------------------------------------------------------------
Tabbed by:Justin
Email:werisetofall@hotmail.com

Tuning:regular

part 1:(distortion) x2
e|-------------------------------------------------------------------------|
B|-------------------------------------------------------------------------|
G|10-10-10-10-10--9-9-9--5-5-5-5-5-5-5-5-----------------------------------|
D|-------------------------------------------------------------------------|
A|-------------------------------------------------------------------------|
E|-------------------------------------------------------------------------|
(goes with part 1)
e|-------------------------------------------------------------------------|
B|-------------------------------------------------------------------------|
G|10-10-10-10-10--9-9-9--12-12-12-12-12-12-12-12---------------------------|
D|-------------------------------------------------------------------------|
A|-------------------------------------------------------------------------|
E|-------------------------------------------------------------------------|

part 2:(clean) x3
e|-------------------------------------------------------------------------|
B|-------------------------------------------------------------------------|
G|10-10-10-10-10--9-9-9--5-5-5-5-5-5-5-5-----------------------------------|
D|-------------------------------------------------------------------------|
A|-------------------------------------------------------------------------|
E|-------------------------------------------------------------------------|
(goes with part 2)
e|-------------------------------------------------------------------------|
B|-------------------------------------------------------------------------|
G|10-10-10-10-10--9-9-9--12-12-12-12-12-12-12-12---------------------------|
D|-------------------------------------------------------------------------|
A|-------------------------------------------------------------------------|
E|-------------------------------------------------------------------------|
part 3:(clean)
e|-------------------------------------------------------------------------|
B|-------------------------------------------------------------------------|
G|-------------------------------------------------------------------------|
D|-8------------10---------------------------------------------------------|
A|-8-(15x's)----10-(15x's)-------------------------------------------------|
E|-6-------------8---------------------------------------------------------|
   x             x
part 4:(clean)-(2x's)
e|-------------------------------------------------------------------------|
B|-------------------------------------------------------------------------|
G|-10----------5-----------10----------12----------------------------------|
D|----(8x's)-----(8x's)-----(8x's)-------(8x's)----------------------------|
A|-8-----------3-----------8-----------10----------------------------------|
E|-------------------------------------------------------------------------|
part4:(clean)
e|-------------------------------------------------------------------------|
B|-------------------------------------------------------------------------|
G|-17----------------------------------------------------------------------|
D|----(8x's)---------------------------------------------------------------|
A|-15----------------------------------------------------------------------|
E|-------------------------------------------------------------------------|

part 5:(clean) x3
e|-------------------------------------------------------------------------|
B|-------------------------------------------------------------------------|
G|10-10-10-10-10--9-9-9--5-5-5-5-5-5-5-5-----------------------------------|
D|-------------------------------------------------------------------------|
A|-------------------------------------------------------------------------|
E|-------------------------------------------------------------------------|
(goes with part 2)
e|-------------------------------------------------------------------------|
B|-------------------------------------------------------------------------|
G|10-10-10-10-10--9-9-9--12-12-12-12-12-12-12-12---------------------------|
D|-------------------------------------------------------------------------|
A|-------------------------------------------------------------------------|
E|-------------------------------------------------------------------------|
part 6:(clean)
e|-------------------------------------------------------------------------|
B|-------------------------------------------------------------------------|
G|-------------------------------------------------------------------------|
D|-8------------10---------------------------------------------------------|
A|-8-(15x's)----10-(15x's)-------------------------------------------------|
E|-6-------------8---------------------------------------------------------|
   x             x
part 7:(clean)-(3x's)
e|-------------------------------------------------------------------------|
B|-------------------------------------------------------------------------|
G|-10----------5-----------10----------12----------------------------------|
D|----(8x's)-----(8x's)-----(8x's)-------(8x's)----------------------------|
A|-8-----------3-----------8-----------10----------------------------------|
E|-------------------------------------------------------------------------|
part8:(clean)
e|-------------------------------------------------------------------------|
B|-------------------------------------------------------------------------|
G|-17----------------------------------------------------------------------|
D|----(8x's)---------------------------------------------------------------|
A|-15----------------------------------------------------------------------|
E|-------------------------------------------------------------------------|
part 9: solo-(clean)
e|-------------------------------------------------------------------------|
B|-------------------------------------------------------------------------|
G|-10----12-10--12h13h14h-10-12-10----10----10--10--10---------------------|
D|----10---------------------------10----10---10--10--10-------------------|
A|-------------------------------------------------------------------------|
E|-------------------------------------------------------------------------|
solo:
e|-------------------------------------------------------------------------|
B|-------------------------------------------------------------------------|
G|-14-12-17-14-12-10-12-13-14-12-14-15-------------------------------------|
D|-------------------------------------------------------------------------|
A|-------------------------------------------------------------------------|
E|-------------------------------------------------------------------------|

e|-------------------------------------------------------------------------|
B|-------------------------------------------------------------------------|
G|---------------(piano)---------------------------------------------------|
D|-------------------------------------------------------------------------|
A|-------------------------------------------------------------------------|
E|-------------------------------------------------------------------------|

part 10:(clean)-(3x's)
e|-------------------------------------------------------------------------|
B|-------------------------------------------------------------------------|
G|-10----------5-----------10----------12----------------------------------|
D|----(8x's)-----(8x's)-----(8x's)-------(8x's)----------------------------|
A|-8-----------3-----------8-----------10----------------------------------|
E|-------------------------------------------------------------------------|
part11:(clean)
e|-------------------------------------------------------------------------|
B|-------------------------------------------------------------------------|
G|-17----------------------------------------------------------------------|
D|----(20x's)--------------------------------------------------------------|
A|-15----------------------------------------------------------------------|
E|-------------------------------------------------------------------------|
part12:(clean)(3x's)
e|-------------------------------------------------------------------------|
B|-------------------------------------------------------------------------|
G|10-10-10-10-10--9-9-9--5-5-5-5-5-5-5-5-----------------------------------|
D|-------------------------------------------------------------------------|
A|-------------------------------------------------------------------------|
E|-------------------------------------------------------------------------|
(goes with part 2)
e|-------------------------------------------------------------------------|
B|-------------------------------------------------------------------------|
G|10-10-10-10-10--9-9-9--12-12-12-12-12-12-12-12---------------------------|
D|-------------------------------------------------------------------------|
A|-------------------------------------------------------------------------|
E|-------------------------------------------------------------------------|



| /  slide up
| \  slide down
| h  hammer-on
| p  pull-off
| ~  vibrato
| +  harmonic
| x  Mute note
===============================================================================

            
            
Suggest correction
Creating personal tab
Creating personal tab
You can edit any tab online and save it as your Personal.

You can edit, replace or remove any tab part or add personal notes – all changes will be seen only by you.

Personal tabs can be accessed anytime from any device, even offline.
Learn more »
comments
print report bad tab
2 comments total.
0 reply
laxonjaxon48 10 Nov 05, 2007 03:26 PM

worst ever

0 reply
MasmaI 20 Feb 21, 2008 03:13 PM

Dude, don't be an ass. It may not be perfect, but it sounds fine.

guest
You may want to rate the tab now too:
select rating
Wanna post a correction for this tab? Suggest correction