Oops, an error
Loading. Please wait.

Youre Not Alone Bass Tab

version 2
version 2

Whole song

Interactive

3,542 views 3 this week
1 commentread comment
1 2 3 4 5
x 3
add to favorites
launch autoscroll
font size
0
reset
guitar tuner
Autoscroll
slow
fast
+/-
esc
set tempo
stop
Help us to improve Ultimate-Guitar.com Take our survey!
×
Difficulty
Tuning
novice
D A D G B E
This is the first thing ive submitted so forgive me if the format comes out weird at all.

Tuning- Drop D (D-A-D-G)

Intro:
G|------------------------------------------------------------------------|
D|------------------------------35--------------------------------32------|
A|5555555555555555\1111111111111--3/5555555555555555\1111111133333--3-----|
D|------------------------------------------------------------------------|

Verse:
G|------------------------------------------------------------------------|
D|------------------------------35-----------------------------------32---|
A|5555555555555555\1111111111111--3/5555555555555555\1111111133333333--3--|
D|------------------------------------------------------------------------|

PreChorus:
G|------------------------------------------------------------------------|
D|------------------------------35----------------------------------------|
A|5555555555555555\1111111111111--3\1111111111111/333333333333333---------|
D|------------------------------------------------------------------------|

Chorus:
G|------------------------------------------------------------------------|
D|------------------------------------------------------------------------|
A|--------11111111----------------55555555\11111111--------33333333-------|
D|00000000--------3333333333333333-----------------33333333---------------|

G|----------------|
D|----------------|
A|1111111111111111|
D|----------------|

Verse 2:
G|------------------------------------------------------------------------|
D|------------------------------35--------------------------------32------|
A|5555555555555555\1111111111111--3/5555555555555555\1111111133333--3-----|
D|------------------------------------------------------------------------|

PreChorus:
G|------------------------------------------------------------------------|
D|------------------------------35----------------------------------------|
A|5555555555555555\1111111111111--3\1111111111111/333333333333333---------|
D|------------------------------------------------------------------------|

Chorus:
G|------------------------------------------------------------------------|
D|------------------------------------------------------------------------|
A|--------11111111----------------55555555\11111111-----------------------|
D|00000000--------3333333333333333-----------------3333333322222222-------|

G|------------------------------------------------------------------------|
D|------------------------------------------------------------------------|
A|--------11111111--------33333333\1111111111111111-----------------------|
D|00000000--------33333333------------------------------------------------|

Bridge:
G|------------------------------------------------------------------------|
D|------------------------------------------------------------------------|
A|----------------111111111111111355555555555555551111111111111111--------|
D|3333333333333333--------------------------------------------------------|

G|------------------------------------------------------------------------|
D|------------------------------------------------------------------------|
A|----------------111111111111111355555555555555556666666666666666--------|
D|3333333333333333--------------------------------------------------------|

Rest for piano break

After Piano (Come in at 2:47)
G|----------------------------------|
D|----------------------------------|
A|/5555555511111111--------33333333-|
D|----------------33333333----------|

Chorus:
G|------------------------------------------------------------------------|
D|------------------------------------------------------------------------|
A|--------11111111----------------55555555\11111111-----------------------|
D|00000000--------3333333333333333-----------------3333333322222222-------|

G|------------------------------------------------------------------------|
D|------------------------------------------------------------------------|
A|--------11111111--------33333333\11111111111111111111111111111111-------|
D|00000000--------33333333------------------------------------------------|

Outro:
G|------------------------------------------------------------------------|
D|-----------------------------35-----------------------------------------|
A|----------------1111111111111--3/5555555555555555\11111111/33333333-----|
D|0000000000000000----------------------------------------------------0~--|

Thats how I play it, I really wanted to start puttin tabs up here so i figured id start 
an easy one
Suggest correction
Give kudos to tab author, rate the tab!
1 2 3 4 5
comments
print report bad tab
1 comment total.
0 reply
manAVECbass 31 May 18, 2008 10:57 PM

Great job dude

guest
You may want to rate the tab now too:
select rating
Wanna post a correction for this tab? Suggest correction