Oops, an error
Loading. Please wait.

Youre Not Alone tab

version 2
version 2

Interactive

by Saosin
35,602 views 12 this week
8 commentsread comments
1 2 3 4 5
x 4
add to favorites
×
Save as Personal and add changes to this tab that will be seen only by you. Learn more ›
×
You can save this tab as Personal to edit and correct it or add notes. All changes will be seen only by you. Learn more »
launch autoscroll
font size
0
reset
how to read this tab
guitar tuner
edit
Autoscroll
slow
fast
+/-
esc
set tempo
stop
Author
Difficulty
SAOSIN
You’re Not Alone
Saosin 2006
Capitol Records

Cove is definitely better than Anthony Green.  Get this album!  Should be almost 100% 
questions contact info below

John Caruso
maddkatt25@yahoo.com
myspace.com/jcaruso


Tuning: eADGBE

Intro/Verse x5 (distortion first 2x than clean the rest)
e|-------------------------------------------------------------------------|
B|-------------------------------------------------------------------------|
G|10-10-10-10-10--9-9-9--5-5-5-5-5-5-5-5-----------------------------------|
D|-------------------------------------------------------------------------|
A|-------------------------------------------------------------------------|
E|-------------------------------------------------------------------------|

e|-------------------------------------------------------------------------|
B|-------------------------------------------------------------------------|
G|10-10-10-10-10--9-9-9--12-12-12-12-12--14-14-14--------------------------|
D|-------------------------------------------------------------------------|
A|-------------------------------------------------------------------------|
E|-------------------------------------------------------------------------|


Pre Chorus (clean Build up)
e|-------------------------------------------------------------------------|
B|-------------------------------------------------------------------------|
G|-------------------------------------------------------------------------|
D|-8------------10---------------------------------------------------------|
A|-8-(15x's)----10-(15x's)-------------------------------------------------|
E|-6-------------8---------------------------------------------------------|
   Pm            pm

Chorus (distortion) 2x
e|-------------------------------------------------------------------------|
B|-------------------------------------------------------------------------|
G|-10----------5-----------10----------12----------17----------------------|
D|-x--(16x's)--x-(16x's)---x(16x's)-----x-(16x's)---x--(16x’s)-------------|
A|-8-----------3-----------8-----------10----------15----------------------|
E|-------------------------------------------------------------------------|


Verse2 x5 (distortion first 2x than clean the rest)
e|-------------------------------------------------------------------------|
B|-------------------------------------------------------------------------|
G|10-10-10-10-10--9-9-9--5-5-5-5-5-5-5-5-----------------------------------|
D|-------------------------------------------------------------------------|
A|-------------------------------------------------------------------------|
E|-------------------------------------------------------------------------|

e|-------------------------------------------------------------------------|
B|-------------------------------------------------------------------------|
G|10-10-10-10-10--9-9-9--12-12-12-12-12--14-14-14--------------------------|
D|-------------------------------------------------------------------------|
A|-------------------------------------------------------------------------|
E|-------------------------------------------------------------------------|


Pre Chorus (clean Build up)
e|-------------------------------------------------------------------------|
B|-------------------------------------------------------------------------|
G|-------------------------------------------------------------------------|
D|-8------------10---------------------------------------------------------|
A|-8-(15x's)----10-(15x's)-------------------------------------------------|
E|-6-------------8---------------------------------------------------------|
   pm            pm

Chorus (distortion) 2x
e|-------------------------------------------------------------------------|
B|-------------------------------------------------------------------------|
G|-10----------5-----------10----------12----------17----------------------|
D|-x--(16x's)--x-(16x's)---x(16x's)-----x-(16x's)---x--(16x’s)-------------|
A|-8-----------3-----------8-----------10----------15----------------------|
E|-------------------------------------------------------------------------|


Solo
e|-------------------------------------------------------------------------|
B|-------------------------------------------------------------------------|
G|-10----12-10--12h13h14h-10-12-10----10----10--10--10---------------------|
D|----10---------------------------10----10---10--10--10-------------------|
A|-------------------------------------------------------------------------|
E|-------------------------------------------------------------------------|

e|-------------------------------------------------------------------------|
B|-------------------------------------------------------------------------|
G|-14-12-17-14-12-10-12-13-14-12-14-15-------------------------------------|
D|-------------------------------------------------------------------------|
A|-------------------------------------------------------------------------|
E|-------------------------------------------------------------------------|

Piano Part/Drum Build Up

Chorus (distortion) 2x
e|-------------------------------------------------------------------------|
B|-------------------------------------------------------------------------|
G|-10----------5-----------10----------12----------17----------------------|
D|-x--(16x's)--x-(16x's)---x(16x's)-----x-(16x's)---x--(16x’s)-------------|
A|-8-----------3-----------8-----------10----------15----------------------|
E|-------------------------------------------------------------------------|


Outro 3x

e|-------------------------------------------------------------------------|
B|-------------------------------------------------------------------------|
G|10-10-10-10-10--9-9-9--5-5-5-5-5-5-5-5-----------------------------------|
D|-------------------------------------------------------------------------|
A|-------------------------------------------------------------------------|
E|-------------------------------------------------------------------------|

e|-------------------------------------------------------------------------|
B|-------------------------------------------------------------------------|
G|10-10-10-10-10--9-9-9--12-12-12-12-12-14-14-14---------------------------|
D|-------------------------------------------------------------------------|
A|-------------------------------------------------------------------------|
E|-------------------------------------------------------------------------|


-------------------
| /  slide up
| \  slide down
| h  hammer-on
| p  pull-off
| ~  vibrato
| +  harmonic
| x  Mute note
-------------------

            
            
Suggest correction
Creating personal tab
Creating personal tab
You can edit any tab online and save it as your Personal.

You can edit, replace or remove any tab part or add personal notes – all changes will be seen only by you.

Personal tabs can be accessed anytime from any device, even offline.
Learn more »
comments
print report bad tab
8 comments total. Showing first comments.
-2 reply
chyeahitsjean 10 Apr 26, 2007 04:25 PM

your reatrded, because the version of this song you hear is DONE by anthony green, god im not even going to read this tab if you think cove reber does this

0 reply
SilverXheroine 37 Apr 26, 2007 09:26 PM

yeah the version on the new album is anthony green ;) keep thinking that buddy

0 reply
saosin22533 40 Jun 19, 2007 09:17 PM

the outro is distorted right?

guest
You may want to rate the tab now too:
select rating
Wanna post a correction for this tab? Suggest correction