Oops, an error
Loading. Please wait.

Between The Lines bass

432 views 3 this week
no commentswrite comment
1 2 3 4 5
2 more votes to show rating
add to favorites
×
Save as Personal and add changes to this tab that will be seen only by you. Learn more ›
×
You can save this tab as Personal to edit and correct it or add notes. All changes will be seen only by you. Learn more »
launch autoscroll
font size
0
reset
guitar tuner
edit
Autoscroll
slow
fast
+/-
esc
set tempo
stop
Author
Difficulty
0:51
G|-----------------------------------------------------------------|
D|-4---------------------------4-6-3---------------------------3-4-|
A|---------------------------4-------------------------------4-----|
E|-----------------------------------------------------------------|
   1 + 2 + 3 + 4 + 1 + 2 + 3 + 4 + 1 + 2 + 3 + 4 + 1 + 2 + 3 + 4 +

G|-----------------------------------------------------------------|
D|-1-------------------------------1-----------3-4-----------------|
A|---------------------------4-2-4-----------------2---------------|
E|-----------------------------------------------------------------|
   1 + 2 + 3 + 4 + 1 + 2 + 3 + 4 + 1 + 2 + 3 + 4 + 1 + 2 + 3 + 4 +

G|-----------------------------------------------------------------|
D|-4-------------4-4-----------4-6-3---------------------------3-4-|
A|---------------------------4-------------------------------4-----|
E|-----------------------------------------------------------------|
   1 + 2 + 3 + 4 + 1 + 2 + 3 + 4 + 1 + 2 + 3 + 4 + 1 + 2 + 3 + 4 +

G|-----------------------------------------------------------------|
D|-1-------------------------------1-----------3-4-----------------|
A|-----------------------------2-4-----------------2---------------|
E|---------------------------------------------------------7---\---|
   1 + 2 + 3 + 4 + 1 + 2 + 3 + 4 + 1 + 2 + 3 + 4 + 1 + 2 + 3 + 4 +

1:21 Pre Chorus
G|-----------------------------------------------------------------|
D|-----------------------4-----------------------4-4---------------|
A|---------------4-----------------2-----4-------------------------|
E|-1-----4---------------------------------------------------------|
   1 + 2 + 3 + 4 + 1 + 2 + 3 + 4 + 1 + 2 + 3 + 4 + 1 + 2 + 3 + 4 +

1:28 Chorus
G|-----------------------------------------------------------------|
D|-----------------------4-------------------------------4---------|
A|---------------4-4---------------2-----4-------6-6-----------6p4-|
E|-2-----6---------------------------------------------------------|
   1 + 2 + 3 + 4 + 1 + 2 + 3 + 4 + 1 + 2 + 3 + 4 + 1 + 2 + 3 + 4 +

G|-----------------------------------------------------------------|
D|-----------------------4-------------------------------4---6-4---|
A|---------------4-------------6p4-2-----4-------6-6-------------6-|
E|-2-----6---------------------------------------------------------|
   1 + 2 + 3 + 4 + 1 + 2 + 3 + 4 + 1 + 2 + 3 + 4 + 1 + 2 + 3 + 4 +

G|-----------------------------------------------------------------|
D|-----------------------4-------------------------------------3---|
A|---------------4-----------------2-----4-------6-----------------|
E|-1-----4---------------------------------------------------------|
   1 + 2 + 3 + 4 + 1 + 2 + 3 + 4 + 1 + 2 + 3 + 4 + 1 + 2 + 3 + 4 +

G|-----------------------------------------------------------------|
D|-4---------------------------4h6-3-------------------------------|
A|---------------------------------------------------------4-------|
E|-----------------------------------------------------------------|
   1 + 2 + 3 + 4 + 1 + 2 + 3 + 4 + 1 + 2 + 3 + 4 + 1 + 2 + 3 + 4 +

1:57 Verse
G|-----------------------------------------------------------------|
D|-4---------------4-----------4-6-3---------------3-----------3-4-|
A|---------------4-----------4-------------------4-----------4-----|
E|-----------------------------------------------------------------|
   1 + 2 + 3 + 4 + 1 + 2 + 3 + 4 + 1 + 2 + 3 + 4 + 1 + 2 + 3 + 4 +

G|-----------------------------------------------------------------|
D|-1---------------1---------------1-----------3-4---------------3-|
A|---------------4-------------2-4-----------------2---------2-4---|
E|-----------------------------------------------------------------|
   1 + 2 + 3 + 4 + 1 + 2 + 3 + 4 + 1 + 2 + 3 + 4 + 1 + 2 + 3 + 4 +

G|-----------------------------------------------------------------|
D|-4---------------4-----------4-6-3---------------3-----------3-4-|
A|---------------4-----------4-------------------4-----------4-----|
E|-----------------------------------------------------------------|
   1 + 2 + 3 + 4 + 1 + 2 + 3 + 4 + 1 + 2 + 3 + 4 + 1 + 2 + 3 + 4 +

G|-----------------------------------------------------------------|
D|-1---------------1-r-1-----------1-----------3-4-----------------|
A|---------------4-------------2-4-----------2-----2-------2-4-2-1-|
E|-----------------------------------------------------------------|
   1 + 2 + 3 + 4 + 1 + 2 + 3 + 4 + 1 + 2 + 3 + 4 + 1 + 2 + 3 + 4 +

2:27 Pre Chorus
G|-----------------------------------------------------------------|
D|-----------------------------------------------4-4---------------|
A|---------------4-4---/-9---------2-----4-------------------------|
E|-1-----4---------------------------------------------------------|
   1 + 2 + 3 + 4 + 1 + 2 + 3 + 4 + 1 + 2 + 3 + 4 + 1 + 2 + 3 + 4 +

2:35 Chorus
G|-----------------------------------------------------------------|
D|-------------------------------------------------------4---------|
A|---------------4-4---/-9---------2-----4-------6-6-----------6p4-|
E|-2-----6---------------------------------------------------------|
   1 + 2 + 3 + 4 + 1 + 2 + 3 + 4 + 1 + 2 + 3 + 4 + 1 + 2 + 3 + 4 +

G|-----------------------------------------------------------------|
D|-----------------------4-------------------------------4---------|
A|---------------4-------------6p4-2-----4-------6-6-----------6p4-|
E|-2-----6---------------------------------------------------------|
   1 + 2 + 3 + 4 + 1 + 2 + 3 + 4 + 1 + 2 + 3 + 4 + 1 + 2 + 3 + 4 +

G|-----------------------------------------------------------------|
D|-----------------------4-------------------------------4---6-4---|
A|---------------4-----------------2-----4-------6-----------------|
E|-1-----4-------------------------------------------------------0-|
   1 + 2 + 3 + 4 + 1 + 2 + 3 + 4 + 1 + 2 + 3 + 4 + 1 + 2 + 3 + 4 +

G|-----------------------------------------------------------------|
D|-----------------------4-------------------------------------4-6-|
A|---------------4-----6-----------2-----4-------6-----------6-----|
E|-1-----4---------------------------------------------------------|
   1 + 2 + 3 + 4 + 1 + 2 + 3 + 4 + 1 + 2 + 3 + 4 + 1 + 2 + 3 + 4 +

3:03Bridge
G|-8---------------------------------------------------------------|
D|-----------------1h3p1-----------------------------------------4-|
A|-------------2-4-------------4-1-2---------------2h4p2-----2-4---|
E|---------------------------------------------2-4-----------------|
   1 + 2 + 3 + 4 + 1 + 2 + 3 + 4 + 1 + 2 + 3 + 4 + 1 + 2 + 3 + 4 +

G|---------------------------3-------------------------------------|
D|-1---------1-----1h3p1-------------------------------------------|
A|-------------2-4-------------4-1-2---------------2h4p2-----2-----|
E|---------------------------------------------2-4-------------4-2-|
   1 + 2 + 3 + 4 + 1 + 2 + 3 + 4 + 1 + 2 + 3 + 4 + 1 + 2 + 3 + 4 +

3:18 Pre Chorus
G|-----------------------------------------------------------------|
D|-------------------------------------------------------4---------|
A|---------------4-4---/-9---------2-----4-------6-6-----------6-4-|
E|-1-----4---------------------------------------------------------|
   1 + 2 + 3 + 4 + 1 + 2 + 3 + 4 + 1 + 2 + 3 + 4 + 1 + 2 + 3 + 4 +

G|-----------------------------------------------------------------|
D|-----------------------4-----------------------------------------|
A|---------------4---------------1-2-------------------------------|
E|-1-----4---------------------4-----------------------------------|
   1 + 2 + 3 + 4 + 1 + 2 + 3 + 4 + 1 + 2 + 3 + 4 + 1 + 2 + 3 + 4 +

3:37 Chorus
G|-----------------------------------------------------------------|
D|-------------------------------------------------------4---------|
A|---------------4-4---/-9---------2-----4-------6-6-----------6p4-|
E|-2-----6---------------------------------------------------------|
   1 + 2 + 3 + 4 + 1 + 2 + 3 + 4 + 1 + 2 + 3 + 4 + 1 + 2 + 3 + 4 +

G|-----------------------------------------------------------------|
D|-----------------------4-------------------------------4---6-4---|
A|---------------4-----------------2-----4-------6-6-------------6-|
E|-2-----6---------------------------------------------------------|
   1 + 2 + 3 + 4 + 1 + 2 + 3 + 4 + 1 + 2 + 3 + 4 + 1 + 2 + 3 + 4 +

G|-----------------------------------------------------------------|
D|-----------------------4-------------------------------4---6-8-6-|
A|---------------4-----------------2-----4-------6-----------------|
E|-1-----4---------------------------------------------------------|
   1 + 2 + 3 + 4 + 1 + 2 + 3 + 4 + 1 + 2 + 3 + 4 + 1 + 2 + 3 + 4 +

G|---------------6-------------------------------------------------|
D|-------6---------------4---3---------------------------4-------6-|
A|-8---------------------------6-4-2-----4-------6-----------------|
E|-----------------------------------------------------------------|
   1 + 2 + 3 + 4 + 1 + 2 + 3 + 4 + 1 + 2 + 3 + 4 + 1 + 2 + 3 + 4 +

G|---------------8--------------------------------------------------|
D|-------8-----------------------------------------------------8-11-|
A|---------------------------------9--------------------------------|
E|------------------------------------------------------------------|
   1 + 2 + 3 + 4 + 1 + 2 + 3 + 4 + 1 + 2 + 3 + 4 + 1 + 2 + 3 + 4 +

G|-10------------------------------8-------------------------------|
D|-----------------------------------------------------------------|
A|-----------------------------------------------------------------|
E|-----------------------------------------------------------------|
   1 + 2 + 3 + 4 + 1 + 2 + 3 + 4 + 1 + 2 + 3 + 4 + 1 + 2 + 3 + 4 +
Tabbed by Dave Vucko

            
            
Suggest correction
Creating personal tab
Creating personal tab
You can edit any tab online and save it as your Personal.

You can edit, replace or remove any tab part or add personal notes – all changes will be seen only by you.

Personal tabs can be accessed anytime from any device, even offline.
Learn more »
Give kudos to tab author, rate the tab!
1 2 3 4 5
comments
print report bad tab
guest
You may want to rate the tab now too:
select rating
Wanna post a correction for this tab? Suggest correction