Oops, an error
Loading. Please wait.

Gonna Get Over You bass

2,594 views 9 this week
no commentswrite comment
1 2 3 4 5
x 4
add to favorites
×
Save as Personal and add changes to this tab that will be seen only by you. Learn more ›
×
You can save this tab as Personal to edit and correct it or add notes. All changes will be seen only by you. Learn more »
launch autoscroll
font size
0
reset
guitar tuner
edit
Autoscroll
slow
fast
+/-
esc
set tempo
stop
Author
Difficulty
G|-------------------------------------------------5---4-----------|
D|---------5---------------7---5-----------5---------------7---5---|
A|-3---------------3---------------3-------------------------------|
E|-----------------------------------------------------------------|
   1 + 2 + 3 + 4 + 1 + 2 + 3 + 4 + 1 + 2 + 3 + 4 + 1 + 2 + 3 + 4 +

0:06
G|-------------------------------------------------12h14p12-------------------|
D|-------------------------------------------------------------14-12----------|
A|-------------------------------------------------------------------------10-|
E|----------------------------------------------------------------------------|
   1 + 2 + 3 + 4 + 1 + 2 + 3 + 4 + 1 + 2 + 3 + 4 + 1     +  2  +  3  +  4  +

G|-----------------------------------------------------------------|
D|-10------\-------------------------------------------------------|
A|-----------------------------------------------------------------|
E|-----------------------------------------------------------------|
   1 + 2 + 3 + 4 + 1 + 2 + 3 + 4 + 1 + 2 + 3 + 4 + 1 + 2 + 3 + 4 +

G|-----------------------------------------------7-5---------------|
D|---------------5-7-----------\-------------------------------5---|
A|-----------------------------------------------------------------|
E|-----------------------------------------------------------------|
   1 + 2 + 3 + 4 + 1 + 2 + 3 + 4 + 1 + 2 + 3 + 4 + 1 + 2 + 3 + 4 +

Verse 0:26
G|-5---5---5---5---5---5---5---5---5---5---5---5---5---5---5---4---|
D|-----------------------------------------------------------------|
A|-----------------------------------------------------------------|
E|-----------------------------------------------------------------|
   1 + 2 + 3 + 4 + 1 + 2 + 3 + 4 + 1 + 2 + 3 + 4 + 1 + 2 + 3 + 4 +

G|------------------------------------------------------------------|
D|-7---7---7---7-5-7---7---7---7---8---8---8---8---8---8---8---10-\-|
A|------------------------------------------------------------------|
E|------------------------------------------------------------------|
   1 + 2 + 3 + 4 + 1 + 2 + 3 + 4 + 1 + 2 + 3 + 4 + 1 + 2 + 3 + 4 +

Pre Chorus 0:40
G|-----------------------------------------------------------------|
D|-3---3---3---3---3---3---3---3-2-5---5---5---5---5---5---5-\-0---|
A|-----------------------------------------------------------------|
E|-----------------------------------------------------------------|
   1 + 2 + 3 + 4 + 1 + 2 + 3 + 4 + 1 + 2 + 3 + 4 + 1 + 2 + 3 + 4 +

G|-----------------------------------------------------------------|
D|-2---2---2---2---2---2---2---5---7---7---7---7---7---7---7---5---|
A|-----------------------------------------------------------------|
E|-----------------------------------------------------------------|
   1 + 2 + 3 + 4 + 1 + 2 + 3 + 4 + 1 + 2 + 3 + 4 + 1 + 2 + 3 + 4 +

G|-----------------------------------------------------------------|
D|-3---3---3---3---3---3---3---3---5---5---5---5-------------------|
A|-------------------------------------------5---5-----------------|
E|-------------------------------------------------3---------------|
   1 + 2 + 3 + 4 + 1 + 2 + 3 + 4 + 1 + 2 + 3 + 4 + 1 + 2 + 3 + 4 +

Chorus 1:00
G|-----------------4---5---4-4-2-------------------2---------------|
D|---------2---5---------------------------2---5-2-----5---2-------|
A|-3-3-5---------------------------0---3-----------------------3---|
E|---------------------------------------------------------------0-|
   1 + 2 + 3 + 4 + 1 + 2 + 3 + 4 + 1 + 2 + 3 + 4 + 1 + 2 + 3 + 4 +

G|-----------------------------------------------------------------|
D|-------------2---0---2---0---------------0---2---3-0-2---3---2---|
A|-----0---3-----3-------------3-------2---------3---------------0-|
E|-1-1---------------------------0-3-------------------------------|
   1 + 2 + 3 + 4 + 1 + 2 + 3 + 4 + 1 + 2 + 3 + 4 + 1 + 2 + 3 + 4 +

1:14
G|-----------------4---5---4---2-0-----------------2---------------|
D|---------2-2-5---------------------------2---5-2-----5---2-------|
A|-3---5---------------------------0---3-----------------------3---|
E|---------------------------------------------------------------0-|
   1 + 2 + 3 + 4 + 1 + 2 + 3 + 4 + 1 + 2 + 3 + 4 + 1 + 2 + 3 + 4 +

G|-----------------------------------------------------------------|
D|-------------2---0---2---0---------------0---2---3-0-2---3---2---|
A|-----0---3-----3-------------3-------2---------3---------------0-|
E|-1-----------------------------0-3-------------------------------|
   1 + 2 + 3 + 4 + 1 + 2 + 3 + 4 + 1 + 2 + 3 + 4 + 1 + 2 + 3 + 4 +

Interlude 1:28
G|-------------------------5---5-\-|
D|-----------------------5---5-----|
A|-3-------------------------------|
E|---------------------------------|
   1 + 2 + 3 + 4 + 1 + 2 + 3 + 4 + 

Verse
G|-----------------------------------------------------------------|
D|-----------------------------------------------------------------|
A|-3---3---3---3---3---3---3-0-3-0-3---3---3---3---3---3-0-3---2---|
E|-----------------------------------------------------------------|
   1 + 2 + 3 + 4 + 1 + 2 + 3 + 4 + 1 + 2 + 3 + 4 + 1 + 2 + 3 + 4 +

G|-------------------------------------------------5---5-----------|
D|-----------------7---7-------5-\---------------5---5---5---------|
A|-0---0---0---0-7---7-------------3---3---3---3-----------3-------|
E|-------------------------------------------------------------3---|
   1 + 2 + 3 + 4 + 1 + 2 + 3 + 4 + 1 + 2 + 3 + 4 + 1 + 2 + 3 + 4 +

1:44
G|-----------------------------------------------------------------|
D|-------------------------------------------------------------5-\-|
A|-3---3---3---3---3---3---3---3-0-3---3---3---3---3---3---5-------|
E|-----------------------------------------------------------------|
   1 + 2 + 3 + 4 + 1 + 2 + 3 + 4 + 1 + 2 + 3 + 4 + 1 + 2 + 3 + 4 +

G|-----------------------------------------------------------------|
D|-------------5---7-5---5-7---------------------------------------|
A|-0---0---0-----7-----7-------0---1---1---1---1-0-1---3---5---1---|
E|-----------------------------------------------------------------|
   1 + 2 + 3 + 4 + 1 + 2 + 3 + 4 + 1 + 2 + 3 + 4 + 1 + 2 + 3 + 4 +

Pre Chorus
G|-----------------------------------------------------------------|
D|-3---3---3---3---3---3---3---0---5---5---5---5---5---5---5-\-0---|
A|-----------------------------------------------------------------|
E|-----------------------------------------------------------------|
   1 + 2 + 3 + 4 + 1 + 2 + 3 + 4 + 1 + 2 + 3 + 4 + 1 + 2 + 3 + 4 +

G|-----------------------------------------------------------------|
D|-2---2---2---2---2---2---0---------------------------------------|
A|-----------------------------3---0---0---0---0---0---0---0-------|
E|-------------------------------------------------------------3---|
   1 + 2 + 3 + 4 + 1 + 2 + 3 + 4 + 1 + 2 + 3 + 4 + 1 + 2 + 3 + 4 +

G|-----------------------------------------------------------------|
D|---------------------------------------------5-------------------|
A|-------------------------------------------5---5---------------5-|
E|-1---1---1---1---1---1---1---1---3---3---3-------3---------------|
   1 + 2 + 3 + 4 + 1 + 2 + 3 + 4 + 1 + 2 + 3 + 4 + 1 + 2 + 3 + 4 +

Chorus 2:18
G|-----------------4---5---4---2-0-----------------2---------------|
D|---------2---5-5-------------------------2---5-2-----5---2-------|
A|-3---5---------------------------0---3-----------------------3---|
E|---------------------------------------------------------------0-|
   1 + 2 + 3 + 4 + 1 + 2 + 3 + 4 + 1 + 2 + 3 + 4 + 1 + 2 + 3 + 4 +

G|-----------------------------------------------------------------|
D|-------------2---0---2---0---------------0---2---3---2-0-3---2---|
A|-----0---3-----3-------------3-------2---------3---------------0-|
E|-1-----------------------------0-3-------------------------------|
   1 + 2 + 3 + 4 + 1 + 2 + 3 + 4 + 1 + 2 + 3 + 4 + 1 + 2 + 3 + 4 +

2:32
G|-----------------4---5---4---2-0-----------------2---------------|
D|---------2-2-5---------------------------2---5-2-----5---2-------|
A|-3---5---------------------------0---3-----------------------3---|
E|---------------------------------------------------------------0-|
   1 + 2 + 3 + 4 + 1 + 2 + 3 + 4 + 1 + 2 + 3 + 4 + 1 + 2 + 3 + 4 +

G|-----------------------------------------------------------------|
D|-------------2---0---2---0---------------0---2---3-0-2---3---2---|
A|-----0---3-----3-------------3-------2---------3-----------------|
E|-1-----------------------------0-3-------------------------------|
   1 + 2 + 3 + 4 + 1 + 2 + 3 + 4 + 1 + 2 + 3 + 4 + 1 + 2 + 3 + 4 +

Bridge
G|--------------------------10------------------------5---------------|
D|-3---3---3---3---------10----10-------------------5-----5-----------|
A|-----------------8---8----------8-\-3---3---3---3-----------3---2---|
E|--------------------------------------------------------------------|
   1 + 2 + 3 + 4 + 1 + 2 +  3  +  4 + 1 + 2 + 3 + 4 + 1 + 2 + 3 + 4 +

G|-----------------------------------------------------------------|
D|---------------/-7---7-------7---6---6---6---8---5---5---5-5-2-2-|
A|-0---0---0---0---------7-0-----7---------------------------------|
E|-----------------------------------------------------------------|
   1 + 2 + 3 + 4 + 1 + 2 + 3 + 4 + 1 + 2 + 3 + 4 + 1 + 2 + 3 + 4 +

2:59
G|-------------------------------------------------5---------------|
D|-3---3---3---3-0-3-0-5---6---5-----------------5---5-------------|
A|---------------------------------3---3---3---3-------3---5---2---|
E|-----------------------------------------------------------------|
   1 + 2 + 3 + 4 + 1 + 2 + 3 + 4 + 1 + 2 + 3 + 4 + 1 + 2 + 3 + 4 +

G|-----------------------------------------------------------------|
D|---------------/-7---7---7---7---6---------------5---------------|
A|-0---0---0---0---------------------------------------------------|
E|-----------------------------------------------------------------|
   1 + 2 + 3 + 4 + 1 + 2 + 3 + 4 + 1 + 2 + 3 + 4 + 1 + 2 + 3 + 4 +

Rest

Pre Chorus 2:23
G|-14p12-14p12-14p12-14p12----5---5---5---5---5---5---5---4-----------------------------------|
D|------------------------------------------------------------7---7---7---7---7---7---7---7---|
A|--------------------------------------------------------------------------------------------|
E|--------------------------------------------------------------------------------------------|
   +  1  +  2  +  3  +  4  +  1 + 2 + 3 + 4 + 1 + 2 + 3 + 4 + 1 + 2 + 3 + 4 + 1 + 2 + 3 + 4 +

G|-------------------------------------------------------------------------|
D|---------------------------------5---5---5---5---------------------5-5-5-|
A|-8---8---8---8---8---8---8---5-------------5---5-------------5-5-5-------|
E|-------------------------------------------------3-3-3-5-5-5-------------|
   1 + 2 + 3 + 4 + 1 + 2 + 3 + 4 + 1 + 2 + 3 + 4 + Trip  Trip  Trip  Trip

Chorus 3:40
G|-----------------4---5---4---2-0-----------------2---------------|
D|---------2---5---------------------------2---5-2-----5---2-------|
A|-3---5---------------------------0---3-----------------------3---|
E|---------------------------------------------------------------0-|
   1 + 2 + 3 + 4 + 1 + 2 + 3 + 4 + 1 + 2 + 3 + 4 + 1 + 2 + 3 + 4 +

G|-----------------------------------------------------------------|
D|-------------2---0---2---0---------------0---2---3---2---3-3-2---|
A|-----0---3-----3-------------3-------2---------3-----------------|
E|-1-------------------------------3-------------------------------|
   1 + 2 + 3 + 4 + 1 + 2 + 3 + 4 + 1 + 2 + 3 + 4 + 1 + 2 + 3 + 4 +

3:53
G|-----------------4---5---4---2-0-----------------2---------------|
D|---------2---5-5-------------------------2---5-2-----5---2-------|
A|-3---5---------------------------0---3-----------------------3---|
E|---------------------------------------------------------------0-|
   1 + 2 + 3 + 4 + 1 + 2 + 3 + 4 + 1 + 2 + 3 + 4 + 1 + 2 + 3 + 4 +

G|-----------------------------------------------------------------|
D|-------------2---0---2---0---------------0---2---3---2---3---2---|
A|-----0---3-----3-------------3-------2---------3-----------------|
E|-1-1-----------------------------3-------------------------------|
   1 + 2 + 3 + 4 + 1 + 2 + 3 + 4 + 1 + 2 + 3 + 4 + 1 + 2 + 3 + 4 +

Outro
G|---------------------------------------------------------------------|
D|---------------------------------------------------------------------|
A|-3---3---3---3---3---3---3---3-/-15-15-15-15-15-15-15-15-15-15-15-15-|
E|---------------------------------------------------------------------|
   1 + 2 + 3 + 4 + 1 + 2 + 3 + 4 + Triplet  Triplet  Triplet  Triplet

Tabbed by Dave Vucko
Suggest correction
Creating personal tab
Creating personal tab
You can edit any tab online and save it as your Personal.

You can edit, replace or remove any tab part or add personal notes – all changes will be seen only by you.

Personal tabs can be accessed anytime from any device, even offline.
Learn more »
comments
print report bad tab
guest
You may want to rate the tab now too:
select rating
Wanna post a correction for this tab? Suggest correction