Oops, an error
Loading. Please wait.

King Of Anything Tab

8,556 views 3 this week
2 commentsread comments
1 2 3 4 5
accurate
x 3
add to favorites
launch autoscroll
font size
0
reset
how to read this tab
guitar tuner
Autoscroll
slow
fast
+/-
esc
set tempo
stop
Help us to improve Ultimate-Guitar.com Take our survey!
×
Author
Capo
6th fret
King of Anything
Sara Bareilles


Capo on 6th Fret

Intro & Verse       

 G                Am               Em               C       D
|----------------|--------0-------|----------------|----------------|
|----0---3---0---|----1-------1---|----0---3---0---|----------------|
|0---------------|3---------------|0---------------|0-----0---------|
|----------------|----------------|----------------|----0-----5--4--|
|----------2---0-|----------2-----|----------2---3-|--3-------5--5--|
|3---------------|--------------0-|----------------|----------------|


Pre-Chorus
 Am               C                Em               D
|----------------|----------------|----0-----------|----------------|
|----------------|----1-----------|--0-------------|----3-----------|
|----2-----------|--0-------------|----------------|--2-------------|
|--2-------------|----------------|3---------------|0---------------|
|0---------------|3---------------|----------------|----------------|
|----------------|----------------|----------------|----------------|


Chorus

Em - C - G - D


Bridge

D        D         Am
   All my life I tried
         Em                  C
to make everybody happy while I
        D        Am
just hurt and hide
              Am         G              C   D
Waiting for someone to tell me it's my turn
          Intro
to decide.
Suggest correction
Give kudos to tab author, rate the tab!
1 2 3 4 5
comments
print report bad tab
2 comments total.
0 reply
lakefairy22 10 wrote on April 4 2012, 03:24 pm

For the verse, I believe the E should be Em. Sounds great otherwise though :)

0 reply
cmrosuello 38 wrote on May 23 2013, 01:12 am

Thanks for the correction. (:

guest
You may want to rate the tab now too:
select rating
Please do not post tabs as comments. Select "correction" instead!