Oops, an error
Loading. Please wait.

Love Song Bass Tab

version 1
version 1

Whole song

Interactive

24,101 views 3 this week
1 commentread comment
1 2 3 4 5
x 5
add to favorites
launch autoscroll
font size
0
reset
guitar tuner
Autoscroll
slow
fast
+/-
esc
set tempo
stop
Help us to improve Ultimate-Guitar.com Take our survey!
×
Difficulty
novice
The rhythm of the song is short sharp notes on the bass. except for little parts of the 
listen to the song to get the feel for the rhythm.


Intro/verse

Chords:

  Gm          Bb        Dm          F
------------------------------------------------------|
------------------------------------------------------|
------------0-1-1-1-1--3-5-5-5-5----------------------|
--2-3-3-3-3------------------------0-1-1-1-1----------|

Prechorus:

Chords:

Gm        Am       Bb       C        Gm       Am       Bb
---------------------------------------------------------------------------|
---------------------------------------------------------------------------|
-------------------1-1-1-1--3-3-3-3--------------------1-1-1-1-1(let ring)-|
-3-3-3-3--5-5-5-5--------------------3-3-3-3--5-5-5-5----------------------|

Chorus:

Chords:

I'm not gonna write you a love...

1st Part
                          Gm        C        F        Bb
--------------------------------------------------------------------------|
--------------------------------------------------------------------------|
------------------------------------3-3-3-3-----------1-1-1-1-------------|
--------------------------3-3-3-3-----------1-1-1-1-----------------------|

2nd Part
  Gm       F        Dm      G        Bb       C
--------------------------------------------------------------------------|
--------------------------------------------------------------------------|
--------------------5-5-5-5----------1-1-1-1--3(let ring)-----------------|
--3-3-3-3--1-1-1-1----------3-3-3-3---------------------------------------|


Bridge:

Chords:

  Dm      Am      Bb      F   C    Dm      Am      Bb      F   C
--------------------------------------------------------------------------|
--------------------------------------------------------------------------|
--5-5-5-5---------1-1-1-1-----3-3--5-5-5-5---------1-1-1-1-----3-3--------|
----------5-5-5-5---------1-1--------------5-5-5-5---------1-1------------|


 Dm      Amaj    Bb      F   C
--------------------------------------------------------------------------|
--------------------------------------------------------------------------|
-5-5-5-5---------1-1-1-1-----3(let ring)----------------------------------|
---------5-5-5-5---------1-1----------------------------------------------|


End bit of the last chorus:

Chords

If your heart...
         Dm
--------------------------------------------------------------------------|
--------------------------------------------------------------------------|
----------5-5-5-5--3-3-3-3--5-5-5-5----------1-1-1-1--3(let ring)---------|
-------------------------------------3-3-3-3------------------------------|

The layout:

Intro/verse     x3   (Piano/guitar only)
Intro/verse     x2
Prechorus       x1
Chorus 1st Part x2
Chorus 2nd Part x1
Intro/verse     x3
Prechorus       x1
Chorus 1st Part x2
Chorus 2nd Part x1
Bridge          x1
Chorus 1st Part x2   (Piano/guitar only)
Chorus 1st Part x2
End Chorus bit  x1
Suggest correction
comments
print report bad tab
1 comment total.
0 reply
attakorah 113 Feb 28, 2012 07:34 PM

Intro/verse

Chords:

Gm F/A Bb C Dm C/E Bb F/D
------------------------------------------------|
------------------------------------------------|
--------------1-1-1-3---5-5-5-3---1-1-1---------|
--3-3-3-1-------------------------------2-------|

THIS IS RIGHT ACCORDING TO PIANO

guest
You may want to rate the tab now too:
select rating
Wanna post a correction for this tab? Suggest correction