Oops, an error
Loading. Please wait.

Tell Me How Tab

136 views 1 this week
no commentswrite comment
1 2 3 4 5
please rate
add to favorites
launch autoscroll
font size
0
reset
how to read this tab
guitar tuner
Autoscroll
slow
fast
+/-
esc
set tempo
stop
Help us to improve Ultimate-Guitar.com Take our survey!
×
Author
Difficulty
Tuning
novice
D# G# C# F# A# D#
NOTE - Everything sounds fine. If anyone has any corrections for the CHORDS in the 
"Instrumental" section, please send them in. It sounds so close but I can't help but feel its 
wrong. Enjoy and let me know what you think! :D

TUNED DOWN HALF A STEP

CHORDS

G   - 320003
Am  - x02210
Em  - 022000
C   - x32010
D7  - xx0212
A+  - x42020


CHORDS FOR INSTRUMENTAL

D#  - xx1343 / x65343 [Play whatever one is more comfortable]
C   - x35553


Intro - G  Am  Em x2


G       Am      Em
  I know we can talk about it later
G        Am           Em
  And I know; nothing really to discuss
G       Am         Em
  I know that I've got my little way of
G       Am      Em
  Complicating us


C     D7
Ooh, ooh

          G     Am     Em
And it is all I ever feel
             G        Am    Em
Like nothing good is ever real
          G         Am     Em
Do you pretend the bad is good?
           C            A+
I know you do; I do it, too


G       Am          Em
  I know that you'd never do me wrong, babe
G       Am                          Em
  Even though sometimes, I wish you would
G        Am         Em
  'cause I'm really good at getting hurt, babe
G        Am               Em
  Not so great at feeling good

C     D7
Ooh, ooh


          G     Am     Em
And it is not for me to tell
            G     Am     Em
Maybe not always, but for now
            G     Am     Em
My hand is always on my mouth
           C
Telling me how


Instrumental -

1] Strum - D#  C x4

OR

2]

e|---------------------------------------------------------------------------|
B|---------------------------------------------------------------------------|
G|----0---0---0---0---0---0---0---0---0---0---0---0---0---0---0---0----------|
D|--1---1---1---1---1---1---1---1---3---3---3---3---3---3---3---3------------|
A|---------------------------------------------------------------------------|
E|---------------------------------------------------------------------------|

e|---------------------------------------------------------------------------|
B|---------------------------------------------------------------------------|
G|----0---0---0---0---0---0---0---0---0---0---0---0---0---0---0---0----------|
D|--1---1---1---1---1---1---1---1---3---3---3---3---3---3---3---3------------|
A|---------------------------------------------------------------------------|
E|---------------------------------------------------------------------------|

e|---------------------------------------------------------------------------|
B|---------------------------------------------------------------------------|
G|----0---0---0---0---0---0---0---0---0---0---0---0---0---0---0---0----------|
D|--1---1---1---1---1---1---1---1---3---3---3---3---3---3---3---3------------|
A|---------------------------------------------------------------------------|
E|---------------------------------------------------------------------------|

e|---------------------------------------------------------------------------|
B|---------------------------------------------------------------------------|
G|----0---0---0---0---0---0---0---0------------------------------------------|
D|--1---1---1---1---1---1---1---1---2----------------------------------------|
A|---------------------------------------------------------------------------|
E|---------------------------------------------------------------------------|


            G     Am    Em
And that is all I ever feel
             G       Am    Em
Like nothing good is ever real
            G         Am        Em
Maybe just scream my name out loud
             C
Drown it all out
        A+
Tell me how
        C
Tell me how
        A+
Tell me how
        C
Tell me how
 D
How


Outro - G  Am  Em x2
Suggest correction
What's this?
You can suggest a correction to this tab. Community and Mods will review your correction and vote to approve or reject it.
comments
We did not receive enough feedback on this tab! Please rate:
print report bad tab
1 2 3 4 5
guest
You may want to rate the tab now too:
select rating
Please do not post tabs as comments. Select "correction" instead!