Oops, an error
Loading. Please wait.

Walking Tab

34 views 1 this week
no commentswrite comment
1 2 3 4 5
3 more votes to show rating
add to favorites
launch autoscroll
font size
0
reset
how to read this tab
guitar tuner
Autoscroll
slow
fast
+/-
esc
set tempo
stop
Help us to improve Ultimate-Guitar.com Take our survey!
×
Author
Difficulty
Capo
intermediate
4th fret
About this tab version
It's a great song and quite easy to play. Was this info helpful? Yes No
Walking – Sarah Aument

Capo 4

[Intro and Verse]

e|--------------------------|
B|------0-----0-----0-------|
G|----0-----0-----0---------|
D|--5-----4-----2-----0h2-2-|  x2
A|--------------------------|
E|--------------------------|


e|-------------------3------|
B|-----0-----0-----0---0----|
G|---0-----0-----0-------0--|
D|--------------------------|  x2
A|-3-----2------------------|
E|-------------3------------|


e|-------3------|
B|-----0---0----|
G|---0-------0--|
D|--------------|  x1
A|--------------|
E|-3------------|


[Chorus] “not this time”

e|-------------------------------------------------|
B|-------------------------------------------------|
G|-----0-----0-----0-----0-----0-----0-----0-----0-|
D|---0-----0-----0-----0-----0-----0-----0-----0---|  x2
A|-------------------------------------------------|
E|-0-----0-----0-----0-----3-----3-----3-----3-----|


[Bridge] ‘you’ve got to try to find happiness’

e|-------------------------------------------------|
b|-----0-----0-----0-----0-----0-----0-----0-----0-|
G|---0-----0-----0-----0-----0-----0-----0-----0---| 
D|-------------------------------------2-----------|
A|-3-----3-----3-----3-----3-----3-----------3-----|
E|-------------------------------------------------|

e|-------------------------------------------------|
b|-----0-----0-----0-----0-----0-----0-----0-----0-|
G|---0-----0-----0-----0-----0-----0-----0-----0---|
D|-------------------------------------------------|
A|-------------------------------------------------|
E|-3-----3-----3-----3-----3-----3-----3-----3-----|


_______________
For Canley Vale
Suggest correction
Give kudos to tab author, rate the tab!
1 2 3 4 5
comments
print report bad tab
guest
You may want to rate the tab now too:
select rating
Wanna post a correction for this tab? Suggest correction