Oops, an error
Loading. Please wait.

Paano Ba Ang Magmahal tab

1,372 views 30 this week
no commentswrite comment
1 2 3 4 5
1 last vote to show rating
add to favorites
×
Save as Personal and add changes to this tab that will be seen only by you. Learn more ›
×
You can save this tab as Personal to edit and correct it or add notes. All changes will be seen only by you. Learn more »
launch autoscroll
font size
0
reset
how to read this tab
guitar tuner
edit
Autoscroll
slow
fast
+/-
esc
set tempo
stop
Author
Difficulty
Paano Ba Ang Magmahal by Sarah and Piolo

Tabs written and arranged by Edwin-E (in YouTube)
Blog: http://guitarplucking.blogspot.com
Facebook Page: http://facebook.com/EdwinGuitar

Video Tutorial:  http://www.youtube.com/watch?v=YaS4w-nMfvI


E|-----------0--0--------]
B|-----------------1--3--]
G|--0--0--0--------------]
D|-----------------------]
A|--------------3--------]
E|-----------------------]
          C
Heto na naman ako,


E|-----3--1--0--1--0-----------0--------0--]
B|--1-----------------3--1--3-----1--3-—1--]
G|--------------------------------------2--]
D|--------------------------------------2--]
A|-----3-----------------------0--------0--]
E|-----------------------------------------]
                        Am
Nag-aabang ng bago sa istorya ko


E|--0--0-----------------1--]
B|--------3--1--1--3-----1--]
G|--------------------2--2--]
D|-----------------------3--]
A|-----------------------3--]
E|--------------------1--1--]
                F
Paulit-ulit na lang,

  
E|--0--0-----------0--0--0--]
B|--------3--1--3--------1--]
G|-----------------------0--]
D|-----------------------2--]
A|--------------------3--3--]
E|--------------------------]
                C
Paulit-ulit na lang


E|-----------------------]
B|-----------1--3--1--1--]
G|--0--0--0--------------]
D|-----------------------]
A|--------------3--------]
E|-----------------------]
           C
Heto na naman ako


E|-----------------0--------------------]
B|--1--3--1--3--3-----3--1-----3--1-----]
G|--------------------------2--------2--]
D|--------------------------------------]
A|-----3-----------------------0--------]
E|--------------------------------------]
                              Am
Tinitignan sa’n nagkamali ang puso ko


E|--------------------------1--]
B|--------0--1--0-----0--1--1--]
G|--2--2-----------2--------2--]
D|--------------------------3--]
A|--------------------------3--]
E|-----------------------1--1--]
                    F
Parang walang katapusan


E|--------------------0--]
B|--1--1--0-----0--3--1--]
G|-----------2--------0--]
D|--------------------2--]
A|-----------------3--3--]
E|-----------------------]
              C
Walang katapusan


Refrain:

E|-----------------------0--------]
B|--1--3--1--3--1--3--3-----3--1--]
G|-----2--2--2--2--2--2--------2--]
D|--------------------------------]
A|-----0--0--0--0--0--0-----------]
E|--------------------------------]
  Am
Kahit pilitin pa ang sarili


E|--------------------------0--1--0--]
B|--1--3--1--3--1--3--1--3--------1--]
G|-----0--0--0--0--0--------------2--]
D|--------------------------------3--]
A|-----------------------------------]
E|-----3-----3-----3-----------------]
 G                        F
Ibigin kang mali, ako’y mali


E|--0--2/3--0--0-----]
B|----------------3--]
G|----------------1--]
D|-------------3--3--]
A|-------------------]
E|-------------------]
        Fm
Ako’y mali


Chorus:

E|--0--3--3--3--3--3--0--0--]
B|-----------------1--------]
G|--------------------------]
D|--------------------------]
A|-----------------3--------]
E|--------------------------]
              C
Paano ba ang magmahal


E|--0--3--3--3--3--3--0--0--]
B|-----------------0--------]
G|--------------------------]
D|--------------------------]
A|-----------------2--------]
E|-----------------0--------]
              Em
Palagi bang masasaktan


E|--0-----------------0--------]
B|-----3--1--3--1--3-----3--1--]
G|-----2-----2-----2-----------]
D|-----------------------------]
A|-----0-----------------------]
E|-----------------------------]
 Am
Umiiyak na lang palagi


E|-----3--1--1--0--0-----]
B|--1-----------------3--]
G|-----------------------]
D|-----3-----------------]
A|-----------------------]
E|-----------------------]
    F           Fm
Gusto ko nang lumisan


E|--0--3--3--3--3--3--0--0--]
B|-----------------1--------]
G|--------------------------]
D|--------------------------]
A|-----------------3--------]
E|--------------------------]
              C
Paano ba ang magmahal


E|--0--3--3--3--3--3--0--0--]
B|-----------------0--------]
G|--------------------------]
D|--------------------------]
A|-----------------2--------]
E|-----------------0--------]
                 Em
Kailangan bang nasasaktan


E|--0-----------------0--------]
B|-----3--1--3--1--3-----3--1--]
G|-----2-----2-----2-----------]
D|-----------------------------]
A|-----0-----------------------]
E|-----------------------------]
  Am
Lagi na lang di maaari


E|--------------------0--]
B|--3--3--1--3--1--3--1--]
G|--2--2-----2-----2-----]
D|--3-----------------3--]
A|-----------------------]
E|-----------------------]
 F            Fm
Ngunit ayaw lumisan


Bridge:

E|--0--0--0--------0--0--------]
B|--------1--1--1-----0--3--3--]
G|-----------2--2--------0--0--]
D|-----------------------------]
A|--------0--------------------]
E|--------------------3--------]
       Am            G  
Kailan ba ang tamang panahon


E|--8--8/10--5-----------0--------]
B|-----------5--------5--0--3--3--]
G|-----------5--5--5--------0--0--]
D|-----------7--------------------]
A|-----------0--------------------]
E|-----------------------3-----3--]
       Am      G  
Kailan ba magkakataong


E|--8--8/10--5--------------------3--4--]
B|-----------5--------5--3--1--1-----1--]
G|-----------5--5--5-----2--------------]
D|-----------7--------------------------]
A|-----------0--------------------------]
E|-----------------------1-----------1--]
       Am          F          Fm
malaya na ang puso mo at puso ko

Chorus

E|--0--3--3--3--3--3--0--0--]
B|-----------------1--------]
G|--------------------------]
D|--------------------------]
A|-----------------3--------]
E|--------------------------]
              C
Paano ba ang magmahal

E|--0--3--3--3--3--3--0--0--]
B|-----------------0--------]
G|--------------------------]
D|--------------------------]
A|-----------------2--------]
E|-----------------0--------]
              Em
Palagi bang nasasaktan


E|--0-----------------0--------]
B|-----3--1--3--1--3-----3--1--]
G|-----2-----2-----2-----------]
D|-----------------------------]
A|-----0-----------------------]
E|-----------------------------]
  Am
Umiiyak na lang palagi


E|-----3--1--1--0--0-----]
B|--1-----------------3--]
G|-----------------------]
D|-----3-----------------]
A|-----------------------]
E|-----------------------]
   F            Fm
Gusto ko nang lumisan


E|--0--3--3--3--3--3--0--0--]
B|-----------------1--------]
G|--------------------------]
D|--------------------------]
A|-----------------3--------]
E|--------------------------]
              C
Paano ba ang magmahal


E|--0--3--3--3--3--3--0--0--]
B|-----------------0--------]
G|--------------------------]
D|--------------------------]
A|-----------------2--------]
E|-----------------0--------]
                 Em
Kailangan bang nasasaktan


E|--0-----------------0--------]
B|-----3--1--3--1--3-----3--1--]
G|-----2-----2-----2-----------]
D|-----------------------------]
A|-----0-----------------------]
E|-----------------------------]
  Am
Lagi na lang di maaari


E|--------------------0--]
B|--3--3--1--3--1--3--1--]
G|--2--2-----2-----2-----]
D|--3-----------------3--]
A|-----------------------]
E|-----------------------]
 F            Fm
Ngunit ayaw lumisan


E|--0--3--3--3--3--3--0--0--]
B|-----------------1--------]
G|--------------------------]
D|--------------------------]
A|-----------------3--------]
E|--------------------------]
              C
Paano ba ang magmahal


E|--0-----------------0--------]
B|-----3--1--3--1--3-----3--1--]
G|-----2-----2-----2-----------]
D|-----------------------------]
A|-----0-----------------------]
E|-----------------------------]
              Em
Palagi bang nasasaktan


E|--0-----------------0--------]
B|-----3--1--3--1--3-----3--1--]
G|-----2-----2-----2-----------]
D|-----------------------------]
A|-----0-----------------------]
E|-----------------------------]
 Am
Umiiyak na lang palagi


E|-----8---8--8--8--8h10--8--]
B|--8--10--------------------]
G|---------------------------]
D|---------------------------]
A|-----8---------------------]
E|---------------------------]
   F            Fm
Gusto ko nang lumisan


E|--0--3--3--3--3--3--0--0--]
B|-----------------1--------]
G|--------------------------]
D|--------------------------]
A|-----------------3--------]
E|--------------------------]
              C
Paano ba ang magmahal


E|--0-----------------0--------]
B|-----3--1--3--1--3-----3--1--]
G|-----2-----2-----2-----------]
D|-----------------------------]
A|-----0-----------------------]
E|-----------------------------]
                 Em
Kailangan bang nasasaktan


E|--0-----------------0--------]
B|-----3--1--3--1--3-----3--1--]
G|-----2-----2-----2-----------]
D|-----------------------------]
A|-----0-----------------------]
E|-----------------------------]
 Am
Umiiyak na lang palagi


E|--------------------0--------]
B|--2--3--1--3--1--3-----3--1--]
G|-----2-----2-----2-----------]
D|-----------------------------]
A|-----------------------------]
E|-----1-----------------------]
  F
Lagi na lang di maaari


E|--0-----------------0--------]
B|-----3--1--3--1--3-----3--1--]
G|-----2-----2-----2-----------]
D|-----------------------------]
A|-----0-----------------------]
E|-----------------------------]
 Am
Umiiyak na lang palagi


E|--------------------0--------]
B|--2--3--1--3--1--3-----3--1--]
G|-----2-----2-----2-----------]
D|-----------------------------]
A|-----------------------------]
E|-----1-----------------------]
  F (pause)
Lagi na lang di maaari


E|--------------------0--]
B|--3--3--1--3--1--3--1--]
G|--2--2-----2-----2--2--]
D|--3--------------3--3--]
A|-----------------------]
E|-----------------------]
 F            Fm
Ngunit ayaw lumisan

            
            
Suggest correction
Creating personal tab
Creating personal tab
You can edit any tab online and save it as your Personal.

You can edit, replace or remove any tab part or add personal notes – all changes will be seen only by you.

Personal tabs can be accessed anytime from any device, even offline.
Learn more »
Give kudos to tab author, rate the tab!
1 2 3 4 5
comments
print report bad tab
guest
You may want to rate the tab now too:
select rating
Wanna post a correction for this tab? Suggest correction