Oops, an error
Loading. Please wait.

Clementine tab

868 views 6 this week
no commentswrite comment
1 2 3 4 5
3 more votes to show rating
add to favorites
×
Save as Personal and add changes to this tab that will be seen only by you. Learn more ›
×
You can save this tab as Personal to edit and correct it or add notes. All changes will be seen only by you. Learn more »
launch autoscroll
font size
0
reset
how to read this tab
guitar tuner
edit
Autoscroll
slow
fast
+/-
esc
set tempo
stop
-------------------------------------------------------------------------------
                             Clementine - Sarah Jaffe
-------------------------------------------------------------------------------
Tabbed by: Brianna Riggio

This is an alternate version of the song. I wanted to play it in finger-style and also incorporate some 
of the electric guitar line, so I adapted it to be played this way. I don't think Sarah Jaffe performs 
it like this, but if anyone is interested I thought I would share it. First tab :)


Tuning: Capo 3

e|----3--3--3--3--------3--3--3--3---------0---0---0---0---0---0---0---0-----|
B|------0--1--0-----------0--1--0------------0-------0-------0-------0-------|
G|---------------------------------------------------------------------------|
D|---------------------------------------------------------------------------|
A|---------------------------------------------------------------------------|
E|--3-----------------3------------------0-------0-------0-------0-----------|


    50 states...      50 crying...       50 boys...      50 I'm gonna...mind


e|---0---0---0---0-----------2---2---2---2--------3--3--3--3-----3--3--3--3--|
B|-----1-------1---------------3-------3------------0--1--0--------0--1--0---|
G|---------------------------------------------------------------------------|
D|---------------------------------------------------------------------------|
A|---------------------------------------------------------------------------|
E|--0------0---------------0-------0------------3---------------3------------|


    Changed my...my       mind     now I feel   indifferent


e|----3--3--3--3----3--3--3--3---------0---0---0---0---0---0---0---0---------|
B|------0--1--0-------0--1--0------------0-------0-------0-------0-----------|
G|---------------------------------------------------------------------------|
D|---------------------------------------------------------------------------|
A|---------------------------------------------------------------------------|
E|--3--------------3-----------------0-------0-------0--------0--------------|


    We were...     young...care      Is...gone       Is...the


e|---0---0---0---0----------2---2---2---2---------3--3--3--3-----3--3--3--3--|
B|-----1-------1--------------3-------3-------------0--1--0--------0--1--0---|
G|---------------------------------------------------------------------------|
D|---------------------------------------------------------------------------|
A|---------------------------------------------------------------------------|
E|--0------0---------------0------0-------------3---------------3------------|


    air? I...my            mind   now I feel    indifferent


e|----3--3--3--3----3--3--3--3----3--3--3--3----3--3--3--3-------------------|
B|------0--1--0-------0--1--0------0--1--0--------0--1--0--------------------|
G|---------------------------------------------------------------------------|
D|---------------------------------------------------------------------------|
A|---------------------------------------------------------------------------|
E|--3-------------3-------------3--------------3-----------------------------|



    All this time               wasted


e|---0---0---0---0---0---0---0---0-----------3--3--3--3------3--3--3--3------|
B|-----0-------0-------0-------0---------------0--1--0---------0--1--0-------|
G|---------------------------------------------------------------------------|
D|---------------------------------------------------------------------------|
A|---------------------------------------------------------------------------|
E|--0------0-------0-------0----------------3---------------3----------------|


    I wish...more                           delicate



e|---3--3--3--3------3--3--3--3-------0---0---0---0------0---0---0---0-------|
B|----0--1--0----------0--1--0----------0-------0----------0-------0---------|
G|---------------------------------------------------------------------------|
D|---------------------------------------------------------------------------|
A|---------------------------------------------------------------------------|
E|--3---------------3---------------0-------0----------0-------0-------------|


   I wish my        I wish my       I wish my          I wish my


e|---0---0----0---0-----2---2----2---2-----3--3--3--3----3--3--3--3-----------|
B|-----1--------1---------3--------3---------0--1--0-------0--1--0------------|
G|----------------------------------------------------------------------------|
D|----------------------------------------------------------------------------|
A|----------------------------------------------------------------------------|
E|--0-------0---------0--------0----------3-------------3----------------3----|


   I wish my          name           was  Clementine



NOTES: This is based on G, Em, C, and D.
If the lyrics are seeming to line up weirdly, that's because I switch chords on the last word of a line 
in several places. The picking pattern is mostly the same throughout the whole song. Feel free to DM on
instagram if you have a question about this. brianna_riggio

Thanks! :)





            
            
Suggest correction
Creating personal tab
Creating personal tab
You can edit any tab online and save it as your Personal.

You can edit, replace or remove any tab part or add personal notes – all changes will be seen only by you.

Personal tabs can be accessed anytime from any device, even offline.
Learn more »
Give kudos to tab author, rate the tab!
1 2 3 4 5
comments
print report bad tab
guest
You may want to rate the tab now too:
select rating
Wanna post a correction for this tab? Suggest correction