Oops, an error
Loading. Please wait.

House Of Mercy Tab

1,192 views 57 this week
1 commentread comment
1 2 3 4 5
x 4
add to favorites
launch autoscroll
font size
0
reset
how to read this tab
guitar tuner
Autoscroll
slow
fast
+/-
esc
set tempo
stop
Author
Difficulty
About this tab version
This tab is based off the recorded version of The House of Mercy. Guitar tuned to DADGAD. Was this info helpful? Yes No
Sarah actually plays an Octave Mandolin, but watching her i figured out the tuning for an acoustic guitar.
The tuning is DADGAD
PLEASE RATE and Enjoy!


Intro/Verse X4
D|----0--------0--------0--------0--------0--------0--------0--------0----|
A|----0--------0--------0--------0--------0--------0--------0--------0----|
G|----2--------2--------0--------0--------2--------2--------0--------0----| 
D|----0----0------------0-----0-----------0-----0-----------0-----0-------|
A|----------------3--------3----------------------------3-----------------|
D|-0----0-----------------------------0-------0----------------3----------|
'
Break X1
D|------------------------------------------------------------------------|
A|----------------------------0-------------------------------------------|
G|-------0--2--0--------------0----------0--2--0--------------------------| 
D|----3-----------3--0--------0-------3-----------3--0-----0--------------|
A|--0-------------------0--3----------------------------3-----3--0--------|
D|--0------------------------------0--------------------------------3b----|


Verse X2


Chorus
D|--=------0-------0-------0-------0-------0-------0-------0-------0---|
A|---------0-------0-------0-------0-------0-------0-------0-------0---|
G|---------2-------0-------0-------0-------2-------2-------0-------0---| 
D|---------0-----0---------0-----0---------0-----0---------0-------0---|
A|-=-------------------3-------3---------------------------------------|
D|-----0-------0-----------------------0-------0-------3-------5-------|
    
D|---------0-------0-------0-------0-------0-------0-------0-------0---|
A|---------0-------0-------0-------0-------0-------0-------0-------0---|
G|---------2-------0-------0-------0-------2-------2-------0-------0---| 
D|---------0-----0---------0-----0---------0-----0---------0-------0---|
A|---------------------3-------3-----------------------5-------3-------|
D|-----0-------0-----------------------0-------0-------5-------3-------|


Bridge X2
D|---------0-------0-------0---------------0-------0-------0-------0---|
A|---------5-------5-------5---------------5-------5-------5-------5---|
G|---------0-------0-------0---------------2-------0-------0-------0---| 
D|---------0-----0---------0-----0---------0-----0---------0-----0-----|
A|-----5-------5-------5-------5---3---5-------------------------------|
D|-----5-------5-------5-------5---3---5-------5-------5-------5-------|

D|---------0-------0-------0-------0-------0-------0-------0-------0---|
A|---------0-------0-------0-------0-------0-------0-------0-------0---|
G|---------2-------2-------0-------0-------2-------0-------0-------0---| 
D|---------0-----0---------0-----0---------0-----0---------0-------0---|
A|---------------------------------------------------------------------|
D|-----0-------0-------3-------3-------2-------2-------1-------1-------|

Effect Legend
b = Bend 

Thats basically the whole song. You will have listen for the repeats and song structure. Hope this helps!


Suggest correction
comments
print report bad tab
1 comment total.
0 reply
dan_treptow40 44 Mar 12, 2017 06:28 PM

sooooooooooooo good. really fun i love DADGAD

guest
You may want to rate the tab now too:
select rating
Wanna post a correction for this tab? Suggest correction