Oops, an error
Loading. Please wait.

Run Away Tab

43 views 3 this week
no commentswrite comment
1 2 3 4 5
3 more votes to show rating
add to favorites
launch autoscroll
font size
0
reset
how to read this tab
guitar tuner
Autoscroll
slow
fast
+/-
esc
set tempo
stop
Help us to improve Ultimate-Guitar.com Take our survey!
×
Author
Difficulty
Capo
advanced
2nd fret
About this tab version
This is the tab for Run Away by Sarah Jarosz. Should be very accurate. Standard tuning except for the low E string. That should be tuned up a half step to F. Was this info helpful? Yes No
Tune the low E string on your guitar up to F. This should be almost 100% Accurate.
If you get stuck try playing the lowest two strings (bass notes) with just your thumb.

[Intro]

e|----------------0---------------0---------------0------------------------|
B|-------------------------------------------------------------------------|
G|------------2---------2-----2---------2-----2---------2-----2---0-----2--| 
D|------2-------2-------2-------2-------2-------2-------2-------2-------2--|
A|--0-------0-------0-------0-------0-------0-------0-------0-------0------|
F|-------------------------------------------------------------------------|

e|--------0---------------0---------------0--------------------------|
B|-------------------------------------------------------------------|
G|----2---------2-----2---------2-----2---------2-----2---0-----2----| 
D|------2-------2-------2-------2-------2-------2-------2-------2----|
A|--0-------0-------0-------0-------0-------0-------0-------0--------|
F|-------------------------------------------------------------------|

e|--------0---------------0---------------0----------------|
B|---------------------------------------------------------|
G|----2---------2-----2---------2-----2---------2----------|
D|------2-------2-------2-------2-------2-------2-------2--|
A|--0-------0-------0-------0-------0-------0-------0------|
F|---------------------------------------------------------|


[Verse]

e|----------------0-------------------------------0--------------------------|
B|---------------------------------------------------------------------------|
G|------------2---------2-----2---------------2---------2------2-------------|
D|------2-------2-------2-------2-------2-------2-------2--------2-----------|
A|--0-------0-------0-------0-------0-------0-------0--------0---------------|
F|---------------------------------------------------------------------------|

e|----------------0-------------------------------0--------------------------|
B|---------------------------------------------------------------------------|
G|------------2---------2-----2---------------2---------2-----2--------------|
D|------0-------0-------0-------0-------0-------0-------0-------0------------|
A|---------------------------------------------------------------------------|
F|--2-------2-------2-------2-------2-------2-------2-------2----------------|

e|----------------0----------------------------------------------------------|
B|---------------------------------------------------------------------------|
G|------------2---------2-----2---------------2---------------2--------------|
D|------0-------0-------0-------0-------0-------0-------0-------0------------|
A|---------------------------------------------------------------------------|
F|--1-------1-------1-------1-------2-------2-------1-------1----------------|

e|----------------0-------------------------------0--------------------------|
B|---------------------------------------------------------------------------|
G|------------2---------2-----2---------------2---------2--------------------|
D|------2-------2-------2-------2-------2-------2-------2--------2-----------|
A|--0-------0-------0-------0-------0-------0-------0--------0---------------|
F|---------------------------------------------------------------------------|


[Chorus]Play twice 

e|------5---------5-----7---------7-8-------7-------5-------3--------|
B|-------------------------------------------------------------------|
G|------------0---------------0--------------------------------------|
D|------3-------3-------5-------5-------7-------5-------3-------0----|
A|-------------------------------------------------------------------|
F|--0-------0-------0-------0-------0-------0-------0-------0--------|

e|----------------0-------------------------------0------------------|
B|-------------------------------------------------------------------|
G|------------2---------2---------------------2---------2------------|
D|------2-------2-------2-------2-------0-------0-------0-------0----|
A|--0-------0-------0-------0----------------------------------------|
F|----------------------------------2-------2-------2-------2--------|

{Break}
{Verse}
{Chorus}



************************************
|(x)  Bass Note
| x   Dead note
| g   Grace note
| (n) Ghost note
| h   Hammer-on
| p   Pull-off
| r   Release
| >   Accented note
| t   Tapping
| b   Bend
| br  Bend release
| pb  Pre-bend
| pbr Pre-bend release
| /   Slide up
| \   Slide down
| ~   Vibrato
| s   Slap
| P   Pop
| PM  Palm mute
| TR  Trill
| N   Tremolo

************************************
Suggest correction
Give kudos to tab author, rate the tab!
1 2 3 4 5
comments
print report bad tab
guest
You may want to rate the tab now too:
select rating
Wanna post a correction for this tab? Suggest correction